Paramore - Emergency Acoustic Text Guitar Tab

Learn the song with the online tablature player
This is the tab for the acoustic version of the song Emergency by Paramore.

                          EMERGENCY - Paramore

Gtr 1- Josh Farro (D-A-D-G-B-E)
Gtr 2- Jason Bynum (D-A-D-G-B-E)

Gtr 1

E|--------9-----9-----9---------------7-----7-----7----------------------------------------------|
B|----7-----7-----7-----7----7-----7----7-----7-----7----7---------------------------------------|
G|--9---9-----9-----9-----9------9---9----9-----9-----9------------------------------------------|
D|-----------------------------------------------------------------------------------------------|
A|------------------------------------------------------------2/4-444444-4/2-2-2/4-444444-4/2-2--|
D|------------------------------------------------------------2/4-444444-4/2-2-2/4-444444-4/2-2--|
x4

E|-------------------------------|
B|--5--5--5----------------------|
G|---4--4--4---x7-----4444/6666--|
D|----2--2-----------------------|
A|--------------------2222/4444--|
D|-------------------------------|

E|-----------------------------------------------------|
B|-----------------------------------------------------|
G|-----------------------------------------------------|
D|-----------------------------------------------------|
A|--99999-00000-44444-77777-x-99999-00000-44444-22222--|
D|--99999-00000-44444-77777-x-99999-00000-44444-22222--|
x2

E|--------9-----9-----9---------------7-----7-----7----------------------------------------------|
B|----7-----7-----7-----7----7-----7----7-----7-----7----7---------------------------------------|
G|--9---9-----9-----9-----9------9---9----9-----9-----9------------------------------------------|
D|-----------------------------------------------------------------------------------------------|
A|------------------------------------------------------------2/4-444444-4/2-2-2/4-444444-4/2-2--|
D|------------------------------------------------------------2/4-444444-4/2-2-2/4-444444-4/2-2--|
x4

E|-------------------------------|
B|--5--5--5----------------------|
G|---4--4--4---x7-----4444/6666--|
D|----2--2-----------------------|
A|--------------------2222/4444--|
D|-------------------------------|

E|-----------------------------------------------------|
B|-----------------------------------------------------|
G|-----------------------------------------------------|
D|-----------------------------------------------------|
A|--99999-00000-44444-77777-x-99999-00000-44444-22222--|
D|--99999-00000-44444-77777-x-99999-00000-44444-22222--|
x2

E|--------9-----9-----9---------------7-----7-----7------|
B|----7-----7-----7-----7----7-----7----7-----7-----7----|
G|--9---9-----9-----9-----9------9---9----9-----9-----9--|
D|-------------------------------------------------------|
A|-------------------------------------------------------|
D|-------------------------------------------------------|

E|-----------------|
B|--5--5--5--------|
G|---4--4--4---x3--|
D|----2--2---------|
A|-----------------|
D|-----------------|

E|-----------------------------------9----------9---------------------------9-12----|
B|------9-10-9-------9-10-9--10-10/12-12---10/12-10-9------9-10-9--10-10/12-----10--|
G|-----9------9-----9------9------------9-----------------9------9------------------|
D|--7/9----------7/9-----------------------------------7/9--------------------------|
A|----------------------------------------------------------------------------------|
D|----------------------------------------------------------------------------------|

E|--12/17-16------17-16-----------|
B|----------17-14------17---------|
G|-----------------------14~-13~--|
D|--------------------------------|
A|--------------------------------|
D|--------------------------------|

E|--------9-----9-----9---------------7-----7-----7------|
B|----7-----7-----7-----7----7-----7----7-----7-----7----|
G|--9---9-----9-----9-----9------9---9----9-----9-----9--|
D|-------------------------------------------------------|
A|-------------------------------------------------------|
D|-------------------------------------------------------|

E|-----------------------------------------------------|
B|-----------------------------------------------------|
G|-----------------------------------------------------|
D|-----------------------------------------------------|
A|--99999-00000-44444-77777-x-99999-00000-44444-22222--|
D|--99999-00000-44444-77777-x-99999-00000-44444-22222--|
x2

E|--------9-----9-----9---------------7-----7-----7----------|
B|----7-----7-----7-----7----7-----7----7-----7-----7--------|
G|--9---9-----9-----9-----9------9---9----9-----9-----9------|
D|-------------------------------------------------------4~--|
A|-------------------------------------------------------4~--|
D|-------------------------------------------------------4~--|

Gtr 2

E|-------------------------------------------------------------------|
B|-------------------------------------------------------------------|
G|-------------------------------------------------------------------|
D|--0~-------------0~------------------------------------------------|
A|--0~-------------0~-------------2/4-444444-4/2-2-2/4-444444-4/2-2--|
D|--0~-------------0~-------------2/4-444444-4/2-2-2/4-444444-4/2-2--|
x4

E|----------------------------------|
B|----------------------------------|
G|----------------------------------|
D|----------------------------------|
A|--2~------4~------0~------0~------|
D|--2~------4~------0~------0~------|

E|-----------------------------------------------------|
B|-----------------------------------------------------|
G|-----------------------------------------------------|
D|-----------------------------------------------------|
A|--99999-00000-44444-77777-x-99999-00000-44444-22222--|
D|--99999-00000-44444-77777-x-99999-00000-44444-22222--|
x2

E|-------------------------------------------------------------------|
B|-------------------------------------------------------------------|
G|-------------------------------------------------------------------|
D|--0~-------------0~------------------------------------------------|
A|--0~-------------0~-------------2/4-444444-4/2-2-2/4-444444-4/2-2--|
D|--0~-------------0~-------------2/4-444444-4/2-2-2/4-444444-4/2-2--|
x4

E|----------------------------------|
B|----------------------------------|
G|----------------------------------|
D|----------------------------------|
A|--2~------4~------0~------0~------|
D|--2~------4~------0~------0~------|

E|-----------------------------------------------------|
B|-----------------------------------------------------|
G|-----------------------------------------------------|
D|-----------------------------------------------------|
A|--99999-00000-44444-77777-x-99999-00000-44444-22222--|
D|--99999-00000-44444-77777-x-99999-00000-44444-22222--|
x2

E|--------------------------------|
B|--------------------------------|
G|--------------------------------|
D|--0~-------------0~-------------|
A|--0~-------------0~-------------|
D|--0~-------------0~-------------|

E|----------------------------------|
B|----------------------------------|
G|----------------------------------|
D|----------------------------------|
A|--2~------4~------0~------0~------|
D|--2~------4~------0~------0~------|
x3

E|------------------|
B|------------------|
G|------------------|
D|------------------|
A|--2~------4~------|
D|--2~------4~------|

E|--------------------------------|
B|--------------------------------|
G|--------------------------------|
D|--0~-------------0~-------xxxx--|
A|--0~-------------0~-------xxxx--|
D|--0~-------------0~-------xxxx--|

E|-----------------------------------------------------|
B|-----------------------------------------------------|
G|-----------------------------------------------------|
D|-----------------------------------------------------|
A|--99999-00000-44444-77777-x-99999-00000-44444-22222--|
D|--99999-00000-44444-77777-x-99999-00000-44444-22222--|
x2

E|-----------------------------------------------|
B|-----------------------------------------------|
G|-----------------------------------------------|
D|--0~-------------0~-------------4~-------------|
A|--0~-------------0~-------------4~-------------|
D|--0~-------------0~-------------4~-------------|

| /  slide up
| \  slide down
| h  hammer-on
| p  pull-off
| ~  vibrato
| +  harmonic
| x  Mute note