Paramore - My Heart Live Text Guitar Tab

Learn the song with the online tablature player
Final Riot - my heart live

Drop C#

Intro
it's called my heart..
|-7-----------7------------------------------------|
|-----9---9-------7---7----7h9--9---9---9---9------|
|---9---9---9----9--9---9---------9---9---9---9----|
|--------------------------------------------------|
|--------------------------------------------------|
|--------------------------------------------------|

|----------------7---------------7----7--7---7-7---|
|-9s12---9---9--------7---7------7-----------7-7---|
|------9---9---9----9---9------9----9---9--9--9----|
|-----------------------------------x--------------|
|--------------------------------------------------|
|--------------------------------------------------|

|--0~---|---0~--|--0~---|---0~--|--0~---|
|--0~---|---0~--|--0~---|---0~--|--0~---|
|--4~---|---9~--|--x----|---x---|--9~---|
|--2~---|---9~--|--13~--|---9~--|--9~---|
|--2~---|---7~--|--11~--|---6~--|--7~---|
|--2~---|---7~--|--11~--|---6~--|--7~---|

Verse
|---0~------|----0~-----|----0~-----|
|---0~------|----0~-----|----0~-----|
|---x-------|----x------|----9~-----|
|---13~-----|---11~-----|----9~-----|6x
|---11~-----|----9~-----|----7~-----|
|---11~-----|----9~-----|----7~-----|

Chorus
|--0~---|---0~--|--0~---|---0~--|--0~---|
|--0~---|---0~--|--0~---|---0~--|--0~---|
|--4~---|---9~--|--x----|---x---|--9~---|
|--2~---|---9~--|--13~--|---9~--|--9~---|2x
|--2~---|---7~--|--11~--|---6~--|--7~---|
|--2~---|---7~--|--11~--|---6~--|--7~---|

Verse
|---0~------|----0~-----|----0~-----|
|---0~------|----0~-----|----0~-----|
|---x-------|----x------|----9~-----|
|---13~-----|---11~-----|----9~-----|6x
|---11~-----|----9~-----|----7~-----|
|---11~-----|----9~-----|----7~-----|

Chorus
|--0~---|---0~--|--0~---|---0~--|--0~---|
|--0~---|---0~--|--0~---|---0~--|--0~---|
|--4~---|---9~--|--x----|---x---|--9~---|
|--2~---|---9~--|--13~--|---7~--|--9~---|2x
|--2~---|---7~--|--11~--|---6~--|--7~---|
|--2~---|---7~--|--11~--|---6~--|--7~---|

Bridge1
My heart is yours....
|---0~-----|----0~-----|----0~----|---0~-----|
|---0~-----|----0~-----|----0~----|---0~-----|
|---x------|----4~-----|----9~----|----x-----|continuous...
|---13~----|----4~-----|----9~----|---11~----|
|---11~----|----2~-----|----7~----|----9~----|
|---11~----|----2~-----|----7~----|----9~----|

last part of bridge1
My heart is...
|---0~---------|----0~-----|---0~------|
|---0~---------|----0~-----|---0~------|
|---0~---------|----x------|---x~------|
|---13~--------|---11~-----|---9~------|
|---11~--------|----9~-----|---7~------|
|---11~--------|----9~-----|---7~------|

Bridge2
woah....
|---0~------|----0~-----|----0~-----|
|---0~------|----0~-----|----0~-----|
|---x-------|----x------|----x------|
|---9~~-----|---13~-----|---11~-----|continuous til fade..
|---7~------|---11~-----|----9~-----|
|---7~------|---11~-----|----9~-----|