Paramore - Where The Lines Overlap Acoustic Text Guitar Tab

Learn song with the online tabulature player
PAramore-WHERE THE LINES OVERLAP  acoustic

tabbed by Francis
09283150081

Tuning- Standard

Intro-
 E                      A         E                      A
|---------------------------00---------------------------00---|
|---------------------------00---------------------------00---|
|-1-1-1-1-1-1-1-1-1-1-1-2-2-22---1-1-1-1-1-1-1-1-1-1-2-2-22---|
|-2-2-2-2-2-2-2-2-2-2-2-2-2-22---2-2-2-2-2-2-2-2-2-2-2-2-22---|
|-2-2-2-2-2-2-2-2-2-2-2-0-0-00---2-2-2-2-2-2-2-2-2-2-0-0-00---|
|-0-0-0-0-0-0-0-0-0-0-0----------0-0-0-0-0-0-0-0-0-0----------|


Verse- 2X
E                      A        E                      A
|---------------------------00---------------------------00---|
|---------------------------00---------------------------00---|
|-1-1-1-1-1-1-1-1-1-1-1-2-2-22---1-1-1-1-1-1-1-1-1-1-2-2-22---|
|-2-2-2-2-2-2-2-2-2-2-2-2-2-22---2-2-2-2-2-2-2-2-2-2-2-2-22---|
|-2-2-2-2-2-2-2-2-2-2-2-0-0-00---2-2-2-2-2-2-2-2-2-2-0-0-00---|
|-0-0-0-0-0-0-0-0-0-0-0----------0-0-0-0-0-0-0-0-0-0----------|

E                      A        C#m                    B
|-0-0-0-0-0-0-0-0-0-0-0-----00---0-0-0-0-0-0-0-0-0-0-0-0-0-0-0-0-|
|-0-0-0-0-0-0-0-0-0-0-0-----00---0-0-0-0-0-0-0-0-0-0-0-0-0-0-0-0-|
|-6-6-6-6-6-6-6-6-6-6-6-9-9-99---6-6-6-6-6-6-6-6-6-6-6-4-4-4-4-4-|
|-6-6-6-6-6-6-6-6-6-6-6-9-9-99---6-6-6-6-6-6-6-6-6-6-6-4-4-4-4-4-|
|-4-4-4-4-4-4-4-4-4-4-4-7-7-77---4-4-4-4-4-4-4-4-4-4-4-2-2-2-2-2-|
|----------------------------------------------------------------|


  A
------|
------|
--6---|
--7---|
--7---|
--5---|

Chorus-
GtrII
E                 A               E                 A
|-----------------0-0-0-0-0-0-0-0-----------------0-0-0-0-0-0-0-0-|
|-0-0-0-0-0-0-0-0-0-0-0-0-0-0-0-0-0-0-0-0-0-0-0-0-0-0-0-0-0-0-0-0-|
|-1-1-1-1-1-1-1-1-2-2-2-2-2-2-2-2-1-1-1-1-1-1-1-1-2-2-2-2-2-2-2-2-|
|-2-2-2-2-2-2-2-2-2-2-2-2-2-2-2-2-2-2-2-2-2-2-2-2-2-2-2-2-2-2-2-2-|
|-2-2-2-2-2-2-2-2-0-0-0-0-0-0-0-0-2-2-2-2-2-2-2-2-0-0-0-0-0-0-0-0-|
|-0-0-0-0-0-0-0-0-----------------0-0-0-0-0-0-0-0-----------------|
C#m                A               E                 B
|-----------------------------------------------------------------|
|-----------------------------------------------------------------|
|-6-6-6-6-6-6-6-6-2-2-2-2-2-2-2-2-1-1-1-1-1-1-1-1-4-4-4-4-4-4-4-4-|
|-6-6-6-6-6-6-6-6-2-2-2-2-2-2-2-2-2-2-2-2-2-2-2-2-4-4-4-4-4-4-4-4-|2x
|-4-4-4-4-4-4-4-4-0-0-0-0-0-0-0-0-2-2-2-2-2-2-2-2-2-2-2-2-2-2-2-2-|
|---------------------------------0-0-0-0-0-0-0-0-----------------|


GtrII
|----------------------------------------------------------|
|-999999999999-12-12-12-12---------------------------------|
|----------------------------------------------------------|
|-------------------------11111111111111111111111111111111-|
|----------------------------------------------------------|
|----------------------------------------------------------|

|----------------------------------------------------------|
|-999999999999-12-12-12-12---------------------------------|
|-----------------------------999999999999-11-11-11-11-----|
|----------------------------------------------------------|
|----------------------------------------------------------|
|----------------------------------------------------------|

|------------------------------------------------------------|
|-1212121212121212-1010101010101010-99999999-----------------|
|-------------------------------------------1111111111111111-|
|------------------------------------------------------------|
|------------------------------------------------------------|
|------------------------------------------------------------|

|-----------------------------------------------------------|
|-1212121212121212------------------------------------------|
|------------------1111111111111111-99999999-88888888-------|
|-----------------------------------------------------------|
|-----------------------------------------------------------|
|-----------------------------------------------------------|

Do Verse-then
 A    B
--------------|
--------------|
-66-66-8------|
-77-77-9------|
-77-77-9------|
-55-55-7------|

Do Chorus
  
Bridge-
  C#m             B/Eb             E              A 
|-----------------------------------------------------------------|
|-----------------------------------------------------------------|
|-6-6-6-6-6-6-6-6-8-8-8-8-8-8-8-8-9-9-9-9-9-9-9-9-----------------|
|-6-6-6-6-6-6-6-6-9-9-9-9-9-9-9-9-9-9-9-9-9-9-9-9-7-7-7-7-7-7-7-7-|
|-4-4-4-4-4-4-4-4-6-6-6-6-6-6-6-6-7-7-7-7-7-7-7-7-7-7-7-7-7-7-7-7-|
|-------------------------------------------------5-5-5-5-5-5-5-5-|
   * * * * * * * * * * * * * * * * * * * * * * * * * * * * * * * *
    C#m             B/Eb             E              A 
|-------------------------------------------------0-0-0-0-0-0-0-0-|
|-------------------------------------------------0-0-0-0-0-0-0-0-|
|-6-6-6-6-6-6-6-6-8-8-8-8-8-8-8-8-9-9-9-9-9-9-9-9-6-6-6-6-6-6-6-6-|
|-6-6-6-6-6-6-6-6-9-9-9-9-9-9-9-9-9-9-9-9-9-9-9-9-7-7-7-7-7-7-7-7-|
|-4-4-4-4-4-4-4-4-6-6-6-6-6-6-6-6-7-7-7-7-7-7-7-7-7-7-7-7-7-7-7-7-|
|-------------------------------------------------5-5-5-5-5-5-5-5-|
   * * * * * * * * * * * * * * * * * * * * * * * *
  C#m             B/Eb             E              A 
|-0-0-0-0-0-0-0-0-0-0-0-0-0-0-0-0-0-0-0-0-0-0-0-0-0-0-0-0-0-0-0-0-|
|-0-0-0-0-0-0-0-0-0-0-0-0-0-0-0-0-0-0-0-0-0-0-0-0-0-0-0-0-0-0-0-0-|
|-6-6-6-6-6-6-6-6-8-8-8-8-8-8-8-8-9-9-9-9-9-9-9-9-6-6-6-6-6-6-6-6-|
|-6-6-6-6-6-6-6-6-9-9-9-9-9-9-9-9-9-9-9-9-9-9-9-9-7-7-7-7-7-7-7-7-|
|-4-4-4-4-4-4-4-4-6-6-6-6-6-6-6-6-7-7-7-7-7-7-7-7-7-7-7-7-7-7-7-7-|
|-------------------------------------------------5-5-5-5-5-5-5-5-|
  C#m             B/Eb             E               
|-0-0-0-0-0-0-0-0-0-0-0-0-0-0-0-0-0-----------------------|
|-0-0-0-0-0-0-0-0-0-0-0-0-0-0-0-0-0-----------------------|
|-6-6-6-6-6-6-6-6-8-8-8-8-8-8-8-8-8-----------------------|
|-6-6-6-6-6-6-6-6-9-9-9-9-9-9-9-9-9-----------------------|
|-4-4-4-4-4-4-4-4-6-6-6-6-6-6-6-6-8-----------------------|
|---------------------------------------------------------|


Chorus-
E                  A              E              A 
|-----------------------------------------------------------------|
|-----------------------------------------------------------------|
|-11--------------6-6-6-6-6-6-6-6-1-1-1-1-1-1-1-1-6-6-6-6-6-6-6-6-|
|-22--------------7-7-7-7-7-7-7-7-2-2-2-2-2-2-2-2-7-7-7-7-7-7-7-7-|
|-22--------------7-7-7-7-7-7-7-7-2-2-2-2-2-2-2-2-7-7-7-7-7-7-7-7-|
|-00--------------5-5-5-5-5-5-5-5-0-0-0-0-0-0-0-0-5-5-5-5-5-5-5-5-|
  C#m             A               E              B
|-----------------------------------------------------------------|
|-----------------------------------------------------------------|
|-6-6-6-6-6-6-6-6-2-2-2-2-2-2-2-2-1-1-1-1-1-1-1-1-4-4-4-4-4-4-4-4-|
|-6-6-6-6-6-6-6-6-2-2-2-2-2-2-2-2-2-2-2-2-2-2-2-2-4-4-4-4-4-4-4-4-|2x
|-4-4-4-4-4-4-4-4-0-0-0-0-0-0-0-0-2-2-2-2-2-2-2-2-2-2-2-2-2-2-2-2-|
|---------------------------------0-0-0-0-0-0-0-0-----------------|

GtrII
|----------------------------------------------------------|
|----------------------------------------------------------|
|-99-------------------------------------------------------|
|-99----------------------11111111111111111111111111111111-|
|-77-------------------------------------------------------|
|----------------------------------------------------------|

|----------------------------------------------------------|
|-999999999999-12-12-12-12---------------------------------|
|-----------------------------999999999999-11-11-11-11-----|
|----------------------------------------------------------|
|----------------------------------------------------------|
|----------------------------------------------------------|

|------------------------------------------------------------|
|-1212121212121212-1010101010101010-99999999-----------------|
|-------------------------------------------1111111111111111-|
|------------------------------------------------------------|
|------------------------------------------------------------|
|------------------------------------------------------------|

|-----------------------------------------------------------|
|-1212121212121212------------------------------------------|
|------------------1111111111111111-99999999-88888888-------|
|-----------------------------------------------------------|
|-----------------------------------------------------------|
|-----------------------------------------------------------|

Outro-
GtrI
E                  A              E              A 
|-----------------------------------------------------------------|
|-----------------------------------------------------------------|
|-1-1-1-1-1-1-1-1-6-6-6-6-6-6-6-6-1-1-1-1-1-1-1-1-6-6-6-6-6-6-6-6-|
|-2-2-2-2-2-2-2-2-7-7-7-7-7-7-7-7-2-2-2-2-2-2-2-2-7-7-7-7-7-7-7-7-|till fade
|-2-2-2-2-2-2-2-2-7-7-7-7-7-7-7-7-2-2-2-2-2-2-2-2-7-7-7-7-7-7-7-7-|
|-0-0-0-0-0-0-0-0-5-5-5-5-5-5-5-5-0-0-0-0-0-0-0-0-5-5-5-5-5-5-5-5-|

GtrII
<---------7x---------->|
|----------------------|-------------------------------------------|
|----------------------|-------------------------------------------|
|-999-88888-444-66666--|--999-88888-444-66666--111111-1313131313---|
|-999-66666-666-44444--|--999-66666-666-44444--131313-1414141414---|
|----------------------|-------------------------------------------|
|----------------------|-------------------------------------------|

end
|-0~---------------------------------------------------------------|
|-0~---------------------------------------------------------------|
|-1~---------------------------------------------------------------|
|-2~---------------------------------------------------------------|
|-2~---------------------------------------------------------------|
|-0~---------------------------------------------------------------|