Paranoid Social Club - Righteous Text Guitar Tab

Learn the song with the online tablature player
                            RIGHTEOUS - Paranoid Social Club

VERSE
e|-------------------------------------------------------|
B|-------------------------------------------------------|
G|--6-------------5-------------4-------------3-------1--|
D|--7-------------6-------------5-------------4-------2--|
A|--7-------------6-------------5-------------4-------2--| x3
E|--5-------------4-------------3-------------2-------0--|

e|---------------------------------|
B|---------------------------------|
G|--3-------------3-------------3--|
D|--4-------------4-------------4--|
A|--4-------------4-------------4--|
E|--2-------------2-------------2--|

e|-------------------------------------------------------|
B|-------------------------------------------------------|
G|--6-------------5-------------4-------------3-------1--|
D|--7-------------6-------------5-------------4-------2--|
A|--7-------------6-------------5-------------4-------2--| x3
E|--5-------------4-------------3-------------2-------0--|

e|---------------------------------|
B|---------------------------------|
G|--3-------------3-------------3--|
D|--4-------------4-------------4--|
A|--4-------------4-------------4--|
E|--2-------------2-------------2--|

e|-------------------------------------------------------|
B|-------------------------------------------------------|
G|--6-------------5-------------4-------------3-------1--|
D|--7-------------6-------------5-------------4-------2--|
A|--7-------------6-------------5-------------4-------2--| x3
E|--5-------------4-------------3-------------2-------0--|

CHORUS
e|---------------------------------------------|
B|---------------------------------------------|
G|--5-x-x-x-x-x-x-5-x-x-x-x-x-x-5-x-x-x-x-x-x--|
D|--4-x-x-x-x-x-x-4-x-x-x-x-x-x-4-x-x-x-x-x-x--|
A|--5-x-x-x-x-x-x-5-x-x-x-x-x-x-5-x-x-x-x-x-x--|
E|--3-x-x-x-x-x-x-3-x-x-x-x-x-x-3-x-x-x-x-x-x--|

VERSE

CHORUS

VERSE

CHORUS

VERSE

CHORUS

VERSE
fade out)

| /  slide up
| \  slide down
| h  hammer-on
| p  pull-off
| ~  vibrato
| +  harmonic
| x  Mute note