Parchman Farm - Say Yeah Text Guitar Tab

Learn song with the online tabulature player
-----------------------------------------------------------------------------
                             SAY YEAH – Parchman Farm
-----------------------------------------------------------------------------
Tuning:EADGBE

The greatest riff in the last 10 years
Intro/Verse       Repeat as necessary
e|---------------------------------------------------------------------------|
B|---------------------------------------------------------------------------|
G|--------------------3h4-3h4-3h4-3h4----------------------------------------|
D|---------------3h5---------------------------------------------------------|
A|-----2-3-4-5-5-------------------------------------------------------------|
E|-3-------------------------------------------------------------------------|

Chorus
e|---------------------------------------------------------------------------|
B|---------------------------------------------------------------------------|
G|--5-5-5p3---3----------5-5-5p3---3----5-5-5p3---3--------------------------|
D|----------5---5-3-3h5----------5--------------5---5-3-3h5----3---3-3--3-5--|
A|------------------------------------------------------------5--5----5------|
E|---------------------------------------------------------------------------|

http://www.jackpinesocialclub.com/parchman_farm.htm