Pat Benatar - Invincible Text Guitar Tab

Learn the song with the online tablature player
Pat Benatar-Invincible

Intro
0:08)
e|----------------------------|
B|----------------------------|
G|----------------------------|
D|--11--11-11-11---4--4-4-4---| x4
A|--11--11-11-11---4--4-4-4---|
D|--9---9--9--9----2--2-2-2---|

Verse
0:23)
e|----------------------------|
B|----------------------------|
G|----------------------------|
D|--11--11-11-11---4--4-4-4---| x6
A|--11--11-11-11---4--4-4-4---|
D|--9---9--9--9----2--2-2-2---|

e|--------------------|
B|--------------------|
G|--------------------|
D|--11--11-11-11------|
A|--11--11-11-11------|
D|--9---9--9--9-------|

Chorus
0:52)
e|----------------------------|
B|----------------------------|
G|----------------6-66--8-88--| x3
D|-11--11-11-11---7-77--9-99--|
A|-11--11-11-11---7-77--9-99--|
D|-9---9--9--9----5-55--7-77--|

e|-----------------------|
B|-----------------------|
G|------------1616-11-13-|
D|--11-13-14—-1616-11-13-|
A|--11-13-14—-1414-9--11-|
D|--9--11-12-------------|

Verse
1:08)
e|----------------------------|
B|----------------------------|
G|----------------------------|
D|--11--11-11-11---4--4-4-4---| x10
A|--11--11-11-11---4--4-4-4---|
D|--9---9--9--9----2--2-2-2---|

Chorus
1:47)
e|----------------------------|
B|----------------------------|
G|----------------6-66--8-88--| x3
D|-11--11-11-11---7-77--9-99--|
A|-11--11-11-11---7-77--9-99--|
D|-9---9--9--9----5-55--7-77--|

e|-----------------------|                         x2
B|-----------------------|
G|------------1616-11-13-|
D|--11-13-14—-1616-11-13-|
A|--11-13-14—-1414-9--11-|
D|--9--11-12-------------|

Bridge
2:17)
e|----------------------------|
B|----------------------------|
G|----------------------------|
D|--11--11-11-11---4--4-4-4---| x9
A|--11--11-11-11---4--4-4-4---|
D|--9---9--9--9----2--2-2-2---|

Pre Chorus (2:52)
e|----------------------------|
B|----------------------------|
G|----------------------------|
D|--11--11-11-11---4--4-4-4---| x4
A|--11--11-11-11---4--4-4-4---|
D|--9---9--9--9----2--2-2-2---|

Chorus
3:05)
e|----------------------------|
B|----------------------------|
G|----------------6-66--8-88--| x3
D|-11--11-11-11---7-77--9-99--|
A|-11--11-11-11---7-77--9-99--|
D|-9---9--9--9----5-55--7-77--|

e|-----------------------|                  x5
B|-----------------------|
G|------------1616-11-13-|
D|--11-13-14—-1616-11-13-|
A|--11-13-14—-1414-9--11-|
D|--9--11-12-------------|

thanks! This is the first tab of this song
tell me if you think there’s anything wrong with it!