Pat Mcgee Band - Minute Chords

 
         
         
         
         
         
3
2
4
3 fr
         
         
         
         
         
1
3
4
2
1
1
         
         
         
         
         
2
1
3
4
3 fr
         
         
         
         
         
X
X
3
2
1
1
5 fr
         
         
         
         
         
X
X
1
3
4
3
7 fr
         
         
         
         
         
X
4
3
1
2
1

10 fr
         
         
         
         
         
X
1
2
3
4
X
10 fr
         
         
         
         
         
X
1
3
3
3
1
12 fr
         
         
         
         
         
3
2
1
1
1
4
         
         
         
         
         
X
3
2
1
3 fr
         
         
         
         
         
X
1
2
3
4
1
8 fr
         
         
         
         
         
1
3
4
2
1
1
3 fr
         
         
         
         
         
X
1
X
3
4
1
5 fr
         
         
         
         
         
3
2
1
1
1
4
10 fr
         
         
         
         
         
X
X
1
3
4
3

12 fr
         
         
         
         
         
X
4
3
1
2
1
3 fr
         
         
         
         
         
X
         
         
         
         
         
X
X
1
3
2
2 fr
         
         
         
         
         
X
4
3
1
2
1
5 fr
         
         
         
         
         
X
1
2
3
4
1
5 fr
         
         
         
         
         
X
1
4
4
4
X
7 fr
         
         
         
         
         
4
3
1
1
1
X
7 fr
         
         
         
         
         
3
2
1
1
1
4

10 fr
         
         
         
         
         
1
3
4
2
1
1
12 fr
         
         
         
         
         
X
X
1
3
4
3
5 fr
         
         
         
         
         
X
X
         
         
         
         
         
2
3
3 fr
         
         
         
         
         
X
X
2
4
1
7 fr
         
         
         
         
         
X
1
3
4
2
1
2 fr
         
         
         
         
         
X
X
1
3
4
2
3 fr
         
         
         
         
         
X
3
2
4
1
4 fr
         
         
         
         
         
X
4
3
1
2
X

12 fr
         
         
         
         
         
1
3
4
1
1
1
No chord
    
Standard guitar tuning:
E
A
D
G
B
E
Capo on 1 fret
Intro / Verse

G C

e|----3---(0)---|
B|---(3)---1----|
G|----0----0----|
D|----0----2----|
A|----2----3----|
E|----3---------|
Pre Chorus

D C

e|----2----0----| B|----3----1----| G|----2----0----| D|----0----2----| A|---------3----| E|--------------|

Chorus

      G     D    Em     C
e|----3-----2-----0-----0----|
B|----3-----3-----1-----1----|
G|----0-----2-----2-----0----|
D|----0-----0-----2-----2----|
A|----2-----------0-----3----|
E|----3----------------------|
      G     D    Em         C
e|----3-----2-----0----0----0----|
B|----3-----3-----1----1----1----|
G|----0-----2-----2----2----0----|
D|----0-----0-----2----0----2----|
A|----2-----------0----2----3----|
E|----3--------------------------|

Bridge

      Em    C     G     D
e|----0-----0-----3-----2----|
B|----1-----1-----3-----3----|
G|----2-----0-----0-----2----|
D|----2-----2-----0-----0----|
A|----0-----3-----2----------|
E|----------------3----------|

All Content on this page is the property of the copyright owner of the original composition.