Patty Griffin - Heavenly Day Text Guitar Tab

Learn song with the online tabulature player
-------------------------------------------------------------------------------
                             Heavenly Day – Patty Griffin
-------------------------------------------------------------------------------
Tabbed by: Stan Ponkin
Email: stans.guitar@gmail.com



Tuning: Standard/ Capo on 4th fret

    G                          Em                       C
e|-------------------------------------------------------------------------0-|
B|------------------3------------------------------0----------------1---0----|
G|--------------0--------0-----------------0----0---------------0---0--------|
D|----------0--------------------------2---0h2--------------2----------------|
A|------2--------------------------2--------------------3--------------------|
E|---3-------------------------0---------------------------------------------|
    Dsus4
e|---------------3-------3---------------------------------------------------|
B|-----------3---3-------3---------------------------------------------------|
G|-------2-----------2---2---------------------------------------------------|
D|---0-----------------------------------------------------------------------|
A|---------------------------------------------------------------------------|
E|---------------------------------------------------------------------------|



G:      320003
Em:     022000
C:      X32010
Dsus4:  XX0233