Paul Osburn - Presence Chords

 

E/C

variations
         
         
         
         
         
X
4
2
1
4 fr
         
         
         
         
         
X

E/A

         
         
         
         
         
X
         
         
         
         
         
X
2
3
1
7 fr
         
         
         
         
         
1
X
4
4
4
X
4 fr
         
         
         
         
         
4
X
X
1
2
1
9 fr
         
         
         
         
         
X
X
1
1
1
4
4 fr
         
         
         
         
         
4
4
3
1
2
1
7 fr
         
         
         
         
         
1
1
2
3
4
1
7 fr
         
         
         
         
         
1
3
4
2
1
1
         
         
         
         
         
X
2
1
X
3
         
         
         
         
         
X
1
4
4
4
X
         
         
         
         
         
X
1
3
3
3
1
4 fr
         
         
         
         
         
4
3
1
1
1
X
4 fr
         
         
         
         
         
3
2
1
1
1
4

9 fr
         
         
         
         
         
X
X
1
3
4
3
11 fr
         
         
         
         
         
X
4
3
1
2
1

B/D

variations
4 fr
         
         
         
         
         
X
3
1
1
1
X
         
         
         
         
         
X
X
1
X
3
4 fr
         
         
         
         
         
X
3
1
1
1
4

A

variations
4 fr
         
         
         
         
         
1
3
4
2
1
1
4 fr
         
         
         
         
         
X
X
3
2
1
1
6 fr
         
         
         
         
         
X
X
1
2
4
3
         
         
         
         
         
3
2
1
1
1
4
8 fr
         
         
         
         
         
X
4
3
1
2
1
11 fr
         
         
         
         
         
X
1
2
3
4
X

11 fr
         
         
         
         
         
X
1
3
3
3
1
         
         
         
         
         
X
1
2
3
5 fr
         
         
         
         
         
1
3
4
2
1
1
2 fr
         
         
         
         
         
X
1
1
1
4
         
         
         
         
         
X
X
1
2
2 fr
         
         
         
         
         
3
2
1
1
1
4
7 fr
         
         
         
         
         
X
X
1
3
4
3

9 fr
         
         
         
         
         
X
4
3
1
2
1
12 fr
         
         
         
         
         
X
1
3
3
3
1
         
         
         
         
         
2
3
1
4 fr
         
         
         
         
         
X
4
3
1
2
1
7 fr
         
         
         
         
         
X
1
4
4
4
X
2 fr
         
         
         
         
         
X
X
1
2
4
3
4 fr
         
         
         
         
         
4
3
1
2
1
7 fr
         
         
         
         
         
X
1
3
3
3
1

9 fr
         
         
         
         
         
4
3
1
1
1
X
9 fr
         
         
         
         
         
3
2
1
1
1
4
12 fr
         
         
         
         
         
1
3
4
2
1
1
4 fr
         
         
         
         
         
X
No chord
    
Standard guitar tuning:
E
A
D
G
B
E
Capo on 2 fret
Chords:

E/C E/A E/B B B/D B A A

E||--0-----0-----0-----0-----0-----0----0---| B||--0-----0-----0-----0-----0-----0----0---| G||--4-----4-----4----11-----4----11----9---| D||--2-----2-----2-----9-----1-----9----7---| A||--4-----0-----2-----9-----2----11----0---| E||--x-----x-----x-----x-----x-----0----x---|

Intro

E||--------------0-----------|--------------0----------|
B||-----------0-----0--------|-----------0-----0-------|
G||--------4-----------4-----|--------4-----------4----|
D||-----2-----------------2--|-----2-----------------2-|
A||--4-----------------------|--0----------------------|
E||--------------------------|-------------------------|
E||--------------0-----------|--------------0----------|
B||-----------0-----0--------|-----------0-----0-------|
G||--------4-----------4-----|--------11---------11----|
D||-----2-----------------2--|-----9-----------------9-|
A||--2-----------------------|--9----------------------|
E||--------------------------|-------------------------|
E||--------------0-----------|--------------0----------|
B||-----------0-----0--------|-----------0-----0-------|
G||--------4-----------4-----|--------4-----------4----|
D||-----2-----------------2--|-----2-----------------2-|
A||--4-----------------------|--0----------------------|
E||--------------------------|-------------------------|
E||--------------0-----------|--------------0----------|
B||-----------0-----0--------|-----------0-----0-------|
G||--------4-----------4-----|--------4-----------4----|
D||-----2-----------------2--|-----1-----------------1-|
A||--2-----------------------|--2----------------------|
E||--------------------------|-------------------------|
Repeat for intro and verse, but this is what is played over the vocal part when it says 'eternity', as show below:
E||--------------------------|
B||--------------------------|
G||--------4--------4--------|
D||-----2--------2-----------|
A||--2--------4--------0-----|
E||--------------------------|
eter - nit - y Chords & Lyrics

Verse

E/CYou're the E/Asweetest girl Ive E/Bever meet B E/CId do E/Aanything to E/Bget you in my B/Dpresence again E/Cjust one E/Anight could change your E/Blife B E/CIt will just E/Atake one time E/Bfor you to B/Drealize

Pre-chorus

that E/Cyou and E/AI were E/Bmade to Bbe E/CtogetE/Aher for E/Beter-E/Cnit - Ey A

Chorus

BI'Am on this winding road and I cannot see AWhere the end is meant to be E/Cbut if I stay E/Bstrong ill make it E/Athrough just fine BI Ajust wish that you could join me Aon that path I am exploring E/Ccuz then we'd both be E/Bable to deE/Afine our lives Post-Chorus:

E/C E/B E/A E/B

Verse

E/CYou're the E/Asweetest girl Ive E/Bever meet B E/CId do E/Aanything to E/Bget you in my B/Dpresence again E/Cjust one E/Anight could change your E/Blife B E/CIt will just E/Atake one time E/Bfor you to B/Drealize

Pre-chorus

that E/Cyou and E/AI were E/Bmade to Bbe E/CtogetE/Aher for E/Beter-E/Cnit - Ey A

Chorus

Verse


All Content on this page is the property of the copyright owner of the original composition.