Pegasus Bridge - While Were Young Acoustic Chords

 
No chord
    
Standard guitar tuning:
E
A
D
G
B
E
Capo on 3 fret
E|-----------------10---------10-------------|
B|-----8-----------10---------8--------------|
G|-----0-----------0----------0--------------|
D|-----0-----------0-------------------------|
A|-----7------------------7------------------|
E|--0----------10---------8------------------|
Mid 8
E|------------------------------|         |---------10--------------10------|
B|----1-------1-----------------|         |---------8---------------10------|
G|----2-------------0------0----|         |---------------------------------|
D|----2-------2-----0------0----|   X2    |---------------------------------|
A|------------3-----2------2----|         |-------7-------------------------|
E|------------------3------2----|         |--0--0-------11--11--11----------|
Hope this is accurate enough for everyone, remember, watch out for FULL guitar pro tabs of: Yoko, Ribena, Violence, While we're young, Like Dogs, and Sit Down! Will

All Content on this page is the property of the copyright owner of the original composition.