People In Planes - Falling By The Wayside Text Guitar Tab

Learn song with the online tabulature player
this song is tuned half a step down.

INTRO RIFF-
e------------------------------------|
B------------------------------------|
G----9----4--4~---4---1----4--4---4--|
D------------------------------------|
A--11----6--6----6---2----6--6---6---|
E-9---0-4--4---44--40--0/4--4--44--4/|x4

1st CHORUS-
e----------------------------------|
B--------0--0---0-----9---4--4---4-|
G----9---1--1---1-----9---4--4---4-|
D----------------------------------|
A--11---2--2---2----11--6---6---6--|
E-9---90--0--00--0/9---4---4--44---|

e-----------------------------------|
B----9---0--0---0-----9---4--4-4--4-|
G----9---1--1---1-----9---4--4-4--4-|
D-----------------------------------|
A--11---2--2---2----11--6---6----6--|
E-9---90--0--00--0/9---4---4--4-4---|