People In Planes - If You Talk Too Much My Head Will Explode Chords

 
No chord
    
Standard guitar tuning:
E
A
D
G
B
E
No capo
Intro/Brdge chords
e|--0---0---0-------------------------------------------------------------------|
B|--0---3---0-------------------------------------------------------------------|
G|--0---2---0-------------------------------------------------------------------|
D|--2---0---2-------------------------------------------------------------------|
A|--2---0---3-------------------------------------------------------------------|
E|--0---x---x-------------------------------------------------------------------|
The second guitar does this
e|--0---3---3-------------------------------------------------------------------|
B|--0---3---3-------------------------------------------------------------------|
G|--0---0---0-------------------------------------------------------------------|
D|--2---0---2-------------------------------------------------------------------|
A|--2---2---3-------------------------------------------------------------------|
E|--0---3---x-------------------------------------------------------------------|

Chorus

the D chord is played for two bars, the rest for one, that's why it's
there twice)
e|--0---2---2---3----------------------------------------------------------------|
B|--0---3---3---3----------------------------------------------------------------|
G|--0---2---2---0----------------------------------------------------------------|
D|--2---0---0---2----------------------------------------------------------------|
A|--2---0---0---3----------------------------------------------------------------|
E|--0---x---x---x----------------------------------------------------------------|

All Content on this page is the property of the copyright owner of the original composition.