Pepper - Give It Up Text Guitar Tab

Learn song with the online tabulature player
-------------------------------------------------------------------------------
                             SONG NAME - Band Name
-------------------------------------------------------------------------------
Tabbed by: C-Bear
Email:

Tuning:standard

Verse/Intro

|---------------------------------------------------------------------------|
|---------------------------------------------------------------------------|
|---------------------------------------------------------------------------|
|-8-------------------------------------------------------------------------|
|-6---10---8---8------------------------------------------------------------|
|------8---6---6------------------------------------------------------------|
(palm muted most of it)

Before Chorus

|-----------------------------------------------------------------------------|
|-----------------------------------------------------------------------------|
|-----------------------------------------------------------------------------|
|-----------------------------------------------------------------------------|
|-6---10---88888x-------------------------------------------------------------|
|-4----8---66666x-------------------------------------------------------------|

Chorus
"why wont you have some dirty hot sex wit me...."

|-4---8---6---6-------------------------------------------------------------|
|-4---8---6---6-------------------------------------------------------------|
|-5---8---7---7-------------------------------------------------------------|
|-6--10---8---8-------------------------------------------------------------|
|-6--10---8---8-------------------------------------------------------------|
|-4---8---6---6-------------------------------------------------------------|
(ska ish strum... pick slide at the end)

bridge
"why'd you gotta sleep wit my daaaAAAaaaaddd.."

|--2---2----4------------------------------------------------------------------|
|--4---4----6------------------------------------------------------------------|
|--4---4----6------------------------------------------------------------------|
|--4---4----6------------------------------------------------------------------|
|--2---2----4------------------------------------------------------------------|
|------------------------------------------------------------------------------|

amazing song ;-D