Pepper - Trade Winds Text Guitar Tab

Learn song with the online tabulature player
Artist: Pepper
Title: Trade Winds
Album: Kona Town
This is a great song, and i found that no one has really submitted a tab for it, so
here it is.


[b]VERSE[/b]

C#     Dm   A#m   G#

e-4-  -5-  -6-   -4-
A-6-  -5-  -6-   -4-
D-6-  -6-  -6-   -5-
G-6-  -7-  -8-   -6-
B-4-  -7-  -8-   -6-
E-X-  -X-  -6-   -4-

The picking goes a little something like this:

  C#        Dm         A#m        G#

e-4---4---4--5---5---5-6---6---6--4---4---4---|
A--6---6------6---6-----6---6------5---5------|
D---6---6------7---7-----6---6------6---6-----|
G---------------------------------------------|
B---------------------------------------------|
E---------------------------------------------|


[b]CHORUS[/b]

 C#  G#  A#m  A#
e-4--4---6----6-------------------------------|
A-6--4---6----6-------------------------------|
D-6--5---6----7-------------------------------|
G-6--6---8----8-------------------------------|
B-4--6---8----8-------------------------------|
E-X--4---6----6-------------------------------|

That's it.  Enjoy.  Rate.  Score chics with dis song (lol, ironically, this song is
about getting over someone.)  Listen to Pepper.  Peace out!