Pete Yorn - Man In Uniform Chords

 
No chord
    
Standard guitar tuning:
E
A
D
G
B
E
No capo
   part I
|------------------------------------------------(|--------------|
|-------------------5----------------------------(|--------------|
|--1--------2-------6---------------6------------(|--------------|
|--2--------2-------6---------------7------------(|--------------|
|--2--------0-------4---------------7------------(|--------------|
|-----------2-----------------------5------------(|--------------|
...Man in uniform, told me he wants to get out.
  He didn't see it coming, head in from the west.
   part II
|--------------------------------------------------------------------------|
|-------------------5------------------------5-----------------------------|
|--8----------------6----(9)-------6---------6----------------2----------6-|
|--9----------------6-or-(10)------7---------6----------------4----------7-|
|--9----------------4----(10)------7---------4----------------4----------7-|
|--7---------------------(9)-------5--------------------------2----------5-|
...And it's he... to reach another level. To be the one who never lost a day
   part III
|------------------------------------------------(|------------------|
|--------------------------------------------------------------------|
|--1--------2-------1-----2----------8----------------------9---6----|
|--2--------2-------2-----2----------9----------------------10--7----|
|--2--------0-------2-----0----------9----------------------10--7----|
|-----------2-------------2----------7----------------------9---5----|
...Just for a little while x2...just for a little while...while. while. while.
|----------------------------------------------------------------|
|----------------------------------------------------------------|
|--9----------------5------------6---8-----------------1---------|
|--10---------------4------------7---9--------end on---2---------|
|--10---------------4------------7---9-----------------2---------|
|--9----------------2------------5---7---------------------------|
I know you never wanted it this way, I can see... I can see...

All Content on this page is the property of the copyright owner of the original composition.