Pink Floyd - Astronomy Domine Text Bass Tab

Learn song with the online tabulature player
Drop D

Intro
G|-------------------------------------------------|
D|-------------------------------------------------|
A|-------------------------------------------------|
D|-2-2-2-2-2-2-2-2-2-2-2-2-2-2-2-2-2-2-2-2-2-2-2-2-|

|--------------------------------------------------|
D|-------------------------------------------------|
A|-------------------------------------------------|
D|-1-1-1-1-1-1-1-1-1-1-1-1-------------------------| 

Verse 1
G|-------------------------------------------------|
D|-------------------------------------------------|
A|-------------------------------------------------|
D|-2-2-2-2-2-2-2-2-2-2-2-2-2-2-2-2-2-2-2-2-2-2-2-2-|

   Lime and limpid green a second scene the fight between the
   blue you


G|-------------------------------------------------|
D|-------------------------------------------------|
A|-------------------------------------------------|
D|-1-1-1-1-1-1-1-1-1-1-1-1-------------------------| 

   Once knew


G|-------------------------------------------------|
D|-------------------------------------------------|
A|-------------------------------------------------|
D|-5-5-5-5-5-5-5-5-5-5-5-5-5-5-5-5-5-5-5-5-5-5-5-5-|

  Floating down the sound resounds around the
  icey waters under


G|--------------------------------------------------|
D|--------------------------------------------------|
A|--------------------------------------------------|
D|-7-7-7-7-7-7-7-7-7-7-7-7-7-7-7-7-7-7-7-7-7-7/-14--|

  ground


G|--------------------------------------------------|
D|--------------------------------------------------|
A|--------------------------------------------------|
D|-14-14-14-14-14-14-14-14-14-14-14-14-14-14-14-14--|

  Jupiter and Saturn, Oberon, Miranda, and


G|--------------------------------------------------|
D|--------------------------------------------------|
A|--------------------------------------------------|
D|-13-13-13-13-13-13-13-13-13-13-13-13-13-13-13\5---| 

  Titana


G|--------------------------------------------------|
D|--------------------------------------------------|
A|--------------------------------------------------|
D|-5-5-5-5-5-5-5-5-5-5-5-5-5-5-5-5-5-5-5-5-5-5-5-6--|

  Neptune, Titan, stars can frighten

Chorus
G|--------------------------------------------------|
D|--------------------------------------------------|
A|-777777-66666-55555-4444-3333-2222-11111-0000-----|
D|--------------------------------------------------| 

  Owwwwwwwwwwwwwwwwwwwwwwwwwwwwwwwwwwwwwwwwwwwwwwwwwww

G|-----------------------------------------------------|
D|--9-----8----=7------6------5------4------3------2---|
A|7--7--6---6-5---5--4---4--3---3--2---2--1---1--0---0-| 
D|-----------------------------------------------------|

  Owwwwwwwwwwwwwwwwwwwwwwwwwwwwwwwwwwwwwwwwwwwwwwwwwww

G|-------------------------------------------------------|
D|----0-0---0-0------------------------1-1---1-1-1---1---|
A|--0-----0-----0--------------------1-------------1-----|
D|-------------------------------------------------------| 

Interlude
(not sure if this is correct but , the notes are there somewere lol)

G|-------------------------------------------------------|
D|-------------------------------------------------------|
A|-------------------------------------------------------|
D|-1-1-1-1-1-1-1-1-1-1-1-1-1-1-1-1-1-1-1-1-1-1-1-1-11---1|

G|-------------------------------------------------------|
D|-------------------------------------------------------|
A|-------------------------------------------------------|
D|-5-5-5-5-5-5-5-5-5-5-5-5-5-5-5-5-5-5-5-5-5-5-5-5-------| 

G|-------------------------------------------------------|
D|-------------------------------------------------------|
A|-------------------------------------------------------|
D|-7-7-7-7-7-7-7-7-7-7-7-7-7-7-7-7-7-7-7-7-7-7-7-7-------| 


G|--------------------------------------------------------|
D|--------------------------------------------------------|
A|--------------------------------------------------------|
D|-14-14-14-14-14-14-14-14-14-14-14-14-14-14-14-14-14-14--|

G|---------------------------------------------------------|
D|---------------------------------------------------------|
A|---------------------------------------------------------|
D|-13-13-13-13-13-13-13-13-13-13-13-13-13-13-13-13-13------| 


G|-------------------------------------------------|
D|-------------------------------------------------|
A|-------------------------------------------------|
D|-12-12-12-12-12-12-12-12-12-12 12\2--------------|

G|-------------------------------------------------|
D|-------------------------------------------------|
A|-------------------------------------------------|
D|-2-2-2-2-2-2-2-2-2-2-2-2-2-2-2-2-2-2-2-2-2-2-2-2-|

G|-------------------------------------------------|
D|-------------------------------------------------|
A|-------------------------------------------------|
D|-6-6-6-6-6-6-6-6-6-6-6-6-6-6-6-6-6-6-6-6-6-6-6-6-|


G|-------------------------------------------------|
D|-------------------------------------------------|
A|-------------------------------------------------|
D|-5-5-5-5-5-5-5-5-5-5-5-5-5-5-5-5-5-5-5-5-5-5-5-5-|


G|-------------------------------------------------|
D|-------------------------------------------------|
A|-------------------------------------------------|
D|-7-7-7-7-7-7-7-7-7-7-7-7-7-7-7-7-7-7-7-7-7-7-7-7-|


G|-------------------------------------------------|
D|-------------------------------------------------|
A|-------------------------------------------------|
D|-5-5-5-5-5-5-5-5-5-5-5-5-5-5-5-5-5-5-5-5-5-5-5-5-|

G|-------------------------------------------------|
D|-------------------------------------------------|
A|-------------------------------------------------|
D|-7-7-7-7-7-7-7-7-7-7-7-7-7-7-7-7-7-7-7-7-7-7-7-7-|

Chorus
G|--------------------------------------------------|
D|--------------------------------------------------|
A|-777777-66666-55555-4444-3333-2222-11111-0000-----|
D|--------------------------------------------------| 

  Owwwwwwwwwwwwwwwwwwwwwwwwwwwwwwwwwwwwwwwwwwwwwwwwwww

G|-----------------------------------------------------|
D|--9-----8-----7------6------5------4------3------2---|
A|7--7--6---6-5---5--4---4--3---3--2---2--1---1--0---0-| 
D|-----------------------------------------------------|

  Owwwwwwwwwwwwwwwwwwwwwwwwwwwwwwwwwwwwwwwwwwwwwwwwwww

G|-------------------------------------------------------|
D|----0-0---0-0------------------------1-1---1-1-1---1---|
A|--0-----0-----0--------------------1-------------1-----|
D|-------------------------------------------------------| 

Verse 2
G|-------------------------------------------------|
D|-------------------------------------------------|
A|-------------------------------------------------|
D|-2-2-2-2-2-2-2-2-2-2-2-2-2-2-2-2-2-2-2-2-2-2-2-2-|

   Blinding signs flap flicker flicker flicker


G|-------------------------------------------------|
D|-------------------------------------------------|
A|-------------------------------------------------|
D|-1-1-1-1-1-1-1-1-1-1-1-1-1-1-1-1-1-1-1-1-1-1-1-1-|

  POW! POW!


G|-------------------------------------------------|
D|-------------------------------------------------|
A|-------------------------------------------------|
D|-5-5-5-5-5-5-5-5-5-5-5-5-5-5-5-5-5-5-5-5-5-5-5-6-|

  Stairway scare Dan dare who's there

Chorus

G|--------------------------------------------------|
D|--------------------------------------------------|
A|-777777-66666-55555-4444-3333-2222-11111-0000-----|
D|--------------------------------------------------| 

  Owwwwwwwwwwwwwwwwwwwwwwwwwwwwwwwwwwwwwwwwwwwwwwwwwww

G|-----------------------------------------------------|
D|--9-----8-----7------6------5------4------3------2---|
A|7--7--6---6-5---5--4---4--3---3--2---2--1---1--0---0-| 
D|-----------------------------------------------------|

  Owwwwwwwwwwwwwwwwwwwwwwwwwwwwwwwwwwwwwwwwwwwwwwwwwww




G|-------------------------------------------------------|
D|----0-0---0-0------------------------1-1---1-1-1---1---|
A|--0-----0-----0--------------------1-------------1-----|
D|-------------------------------------------------------| 

  Lime and limpid green the sound surounds the icy waters under

G|-------------------------------------------------------|
D|----0-0---0-0------------------------1-1---1-1-1---1---|
A|--0-----0-----0--------------------1-------------1-----|
D|-------------------------------------------------------| 

  Lime and limpid green the sound surounds the icy waters under

G|----------------------|
D|----1-1---1-1-1---1---|
A|--1-------------1-----|
D|----------------------| 

  ground