Pink Floyd - Possible Pasts Text Bass Tab

Learn song with the online tabulature player
the song is in 6/8 time.

verse:
G:-------------7-----------------------------------
D:-5-----5--------7--------------------------------
A:-------------------------------------------------
E:-------------------------------------------------

G:-------------7------7----------------------------
D:-5-----5------------------5-----5-----5----5-----
A:-------------------------------------------------
E:-------------------------------------------------

repeat two times

chorus:
G:-------------------------------------------------
D:-------------------------------------------------
A:--------------------------------3----------------
E:-3--2--0--------0--------0-----------------------

then play the verse part three times
then play the chorus again

guitar solo:
G:-------------------------------------------------
D:-------------------------------------------------
A:-------------------------------------------0-----
E:-0--0--3--3--0--0--3--3--0--0--3--3--0--0--------