Planet Smashers - Unstoppable Chords

 
         
         
         
         
         
X
X
1
3
2
2 fr
         
         
         
         
         
X
4
3
1
2
1
5 fr
         
         
         
         
         
X
1
2
3
4
1
5 fr
         
         
         
         
         
X
1
4
4
4
X
7 fr
         
         
         
         
         
4
3
1
1
1
X
7 fr
         
         
         
         
         
3
2
1
1
1
4

10 fr
         
         
         
         
         
1
3
4
2
1
1
12 fr
         
         
         
         
         
X
X
1
3
4
3
5 fr
         
         
         
         
         
X
X
         
         
         
         
         
3
2
4
3 fr
         
         
         
         
         
1
3
4
2
1
1
         
         
         
         
         
2
1
3
4
3 fr
         
         
         
         
         
X
X
3
2
1
1
5 fr
         
         
         
         
         
X
X
1
3
4
3
7 fr
         
         
         
         
         
X
4
3
1
2
1

10 fr
         
         
         
         
         
X
1
2
3
4
X
10 fr
         
         
         
         
         
X
1
3
3
3
1
12 fr
         
         
         
         
         
3
2
1
1
1
4
         
         
         
         
         
X
3
2
1
3 fr
         
         
         
         
         
X
1
2
3
4
1
8 fr
         
         
         
         
         
1
3
4
2
1
1
3 fr
         
         
         
         
         
X
1
X
3
4
1
5 fr
         
         
         
         
         
3
2
1
1
1
4
10 fr
         
         
         
         
         
X
X
1
3
4
3

12 fr
         
         
         
         
         
X
4
3
1
2
1
3 fr
         
         
         
         
         
X
No chord
    
Standard guitar tuning:
E
A
D
G
B
E
No capo
Intro/Basic Verse Progression
|-10------10------8-------10--10--|
|-10------12------8-------12--10--|
|-11------12------9-------12--11--|
|-12------12------10------12--12--|
|-12------10------10------10--12--|
|-10------10------8-------10--10--|

D G C G D

Prechorus

~That's right)
|-10------|
|-12------|
|-12------|
|-12------|
|-10------|
|-10------|

G

Chorus

|-8-------10------10--------------|-8-------3-------5---------------|
|-8-------12------10--------------|-8-------3-------7---------------|
|-9-------12------11--------------|-9-------4-------7---------------|
|-10------12------12--------------|-10------5-------7---------------|
|-10------10------12--------------|-10------5-------5---------------|
|-8-------10------10--------------|-8-------3-------5---------------|

C G D C G D


All Content on this page is the property of the copyright owner of the original composition.