Planetshakers - Rescue Me Chords

 
No chord
    
Standard guitar tuning:
E
A
D
G
B
E
No capo
Intro/Verse 1 (seems like i try...)
-------------------------------------|
-------------------------------------|
---------7------9------5-------------|
--5------7-(X8)-9-(X8)-5-(X8)--------|     play 6 times
--5-(X8)-5------7------3-------------|
--3----------------------------------|

Chorus

When all my strength...)
---------------------------------------------------------|
---------------------------------------------------------|
---------7------4------5------------7------9------5------|
--5------7-(X8)-4-(X8)-5-(X8)5------7-(X8)-9-(X8)-5------|(X8)  play once
--5-(X8)-5------2------3-----5-(X8)-5------7------3------|
--3--------------------------3---------------------------|

Verse 2

Just when i think...)
-------------------------------------|
-------------------------------------|
---------7------9------5-------------|
--5------7-(X8)-9-(X8)-5-(X8)--------|     play 4 times
--5-(X8)-5------7------3-------------|
--3----------------------------------|

Chorus

---------------------------------------------------------|
---------------------------------------------------------|
---------7------4------5------------7------9------5------|
--5------7-(X8)-4-(X8)-5-(X8)5------7-(X8)-9-(X8)-5------|(X8)  play 2 times
--5-(X8)-5------2------3-----5-(X8)-5------7------3------|
--3--------------------------3---------------------------|

Bridge

i wonder if ill make...)
---------------------------------------|
---------------------------------------|
----------5----------------------------|
--7-------5-(X8)-5------7--------------|  play 3 times, then on 4th time
--7-(X8)--3------5-(X8)-7-(X8)---------| switch to chorus chords and
--5--------------3------5--------------|    play 2 times
Verse after bridge
-------------------------------------|
-------------------------------------|
---------7------9------5-------------|
--5------7-(X8)-9-(X8)-5-(X8)--------|     play 2 times and on final chord
--5-(X8)-5------7------3-------------| instead of strumming repeatedly
--3----------------------------------|      hold it out to the chorus

Chorus

---------------------------------------------------------|
---------------------------------------------------------|
---------7------4------5------------7------9------5------|
--5------7-(X8)-4-(X8)-5-(X8)5------7-(X8)-9-(X8)-5------|(X8)  play 2 times
--5-(X8)-5------2------3-----5-(X8)-5------7------3------|
--3--------------------------3---------------------------|

Outro

Play verse chords til end, fade out

All Content on this page is the property of the copyright owner of the original composition.