Plastic Bertrand - Ca Plane Pour Moi Text Guitar Tab

Learn song with the online tabulature player
Intro
    X2
E |------------------|----------------|----------------|-----------------|
B |------------------|----------------|----------------|-----------------|
G |--5-5-5-5-5-5-5-5-|5-5-5-5-5-5-5-5-|----------------|-----------------|
D |--3-3-3-3-3-3-3-3-|3-3-3-3-3-3-3-3-|3-3-3-3-3-3-3-3-|3-3-3-3-3-3-3-3--|
A |------------------|----------------|1-1-1-1-1-1-1-1-|1-1-1-1-1-1-1-1--|
E |------------------|----------------|----------------|-----------------|


Main riff/chorus

                 4X              2X                   2X
E |-----------------|----------------|----------------|
B |-----------------|----------------|----------------|
G |-----------------|3-3-3-3-3-3-3-3-|----------------|
D |-3-3-3-3-3-3-3-3-|1-1-1-1-1-1-1-1-|3-3-3-3-3-3-3-3-|
A |-1-1-1-1-1-1-1-1-|----------------|1-1-1-1-1-1-1-1-|
E |-----------------|----------------|----------------|

                  2X                  2X
E |----------------|----------------|
B |----------------|----------------|
G |5-5-5-5-5-5-5-5-|----------------|
D |3-3-3-3-3-3-3-3-|3-3-3-3-3-3-3-3-|
A |----------------|1-1-1-1-1-1-1-1-|
E |----------------|----------------|

and thats pretty much the same all over again..
if you wanna make those lighter guitar notes that appear in the song,
just play the same..
but down 12 frets..