Police - Cant Stand Loosing You Text Guitar Tab

Learn the song with the online tablature player
THE POLICE: [CAN¡¦T STAND LOOSING YOU]

My favorite song. 80s cool masterpiece.
It¡¦s so easy even for rookies. Here you go, ***ROCK IT!!!!***

Tune===E-B-G-D-A-E====

Intro

e--5---6---5---6---5---6---5---6---|
b--6---8---6---8---6---8---6---8---|
g--7---7---7---7---7---7---7---7---|
d----------------------------------|
a----------------------------------|
e----------------------------------|

Verse 1

e--5---5---5---5---6---6---6---6---|
b--6---6---6---6---8---8---8---8---|
g--7---7---7---7---7---7---7---7---|
d----------------------------------|
a----------------------------------|
e----------------------------------|

Verse 2

e---------------------------------------|
b---------------------------------------|
g--3--------3--------5--------5---------|
d--3--3--3--3--3--3--5--5--5--5--5--5---|
a--1--3--3--1--3--3--3--5--5--3--5--5---|
e-----1--1-----1--1-----3--3-----3--3---|

Verse 3

e--1--1--1--1--1--1--1--1--6--6--6--6--6--6--6--6--8---8---8---8---|
b--3--3--3--3--3--3--3--3--8--8--8--8--8--8--8--8--10--10--10--10--|
g--3--3--3--3--3--3--3--3--7--7--7--7--7--7--7--7--9---9---9---9---|
d------------------------------------------------------------------|
a------------------------------------------------------------------|
e------------------------------------------------------------------|

e--8---8---8---8---------------|
b--10--10--10--10--------------|
g--9---9---9---9---------------|
d------------------------------|
a------------------------------|
e------------------------------|

e-----------------------------------------------------------|
b-----------------------------------------------------------|
g-----------------------------------------------------------|
d-0--0--0--0--0--0--0--0--0--0--0--0--0--0--0--0--0--0--0---|
a-----------------------------------------------------------|
e-----------------------------------------------------------|

Play Verse 2 again
I guess youd call it suicide
but Im too full to swallow my pride