Porter - Host Of A Ghost Text Guitar Tab

Learn the song with the online tablature player
= HOST OF A GHOST =

 X = NUMERO DE VECES QUE SE TOCA LA NOTA

)))))= DEJAR SONAR LA NOTA

G|------------------------|
D|------------------------|
A|--4(x16)----------------|x6
E|-------------4(x16)-----|

G|------------------------|
D|-------------3(x16)-----|
A|------------------------|x4
E|---4(x16)---------------|

G|------------------------|
D|------------------------|
A|--4(x16)----------------|x3
E|-------------4(x16)-----|

G|----------------------------------|
D|----------------------------------|
A|--4(x16)--------------------------|
E|-------------4(x16)-----4)))))----|

=CORO=

G|--------------------------------------------------------|
D|--3---3-3--3-3------------------------------------------|
A|------------------4-4---3--4------------------3---3-3---|x4
E|-------------------------------4---4-4--4-4-------------|

G|------------------------|
D|-------------3(x16)-----|
A|------------------------|x2
E|---4(x16)---------------|

G|---------------|
D|---------------|
A|----4(x16)-----|
E|---------------|

LOVELY LOVELY TIME...X2

G|------------------------|
D|------------------------|
A|--4(x16)----------------|x3
E|-------------4(x16)-----|

=CORO=

G|--------------------------------------------------------|
D|--3---3-3--3-3------------------------------------------|
A|------------------4-4---3--4------------------3---3-3---|x8
E|-------------------------------4---4-4--4-4-------------|

=FINAL=

G|--------------------------------------|
D|--------------------------------------|
A|------------3-------3---4--------4----|X2
E|--4--4--4-------4------------4--------|

G|---------------------|
D|---------------------|
A|---------------------|
E|-------4)))))--------|