Presidents Of The Usa - Bowl Weevil Chords

 
No chord
    
Standard guitar tuning:
E
A
D
G
B
E
No capo

Verse

G|--------------------|
D|------55--3---------|
A|-3---3--3---3-6-3---|
E|--------------------|

Chorus

G|--------------------|
D|--------------------|
A|--3333-6666-5555----|
E|--------------------|
Final Chorus measure
G|--------------------|
D|-------------4-4----|
A|--3333-6666---------|
E|--------------------|
During the breaks you can add things before you come back into the verse, like:
A|--12----3|
or
A|--12-7-5-3|
Song structure:

Verse x4

Break

Verse x16

Break

Verse x2

Break

Verse x6

Chorus x7

Final Chorus

Verse x3

Bass solo

Break

Chorus x15

Final Chorus

All Content on this page is the property of the copyright owner of the original composition.