Pretenders - Talk Of The Town Text Guitar Tab

Learn song with the online tabulature player
-------------------------------------------------------------------------------
                             TALK OF THE TOWN - Pretenders
-------------------------------------------------------------------------------
Tabbed by: Hanoihancock  

Intro
G|---------------------------------------------------------------------------|
D|---------------------------------------------------------------------------|
A|---------------------------------------------------------------------------|
E|-2h3-3-3-3-3-3-3-3-3-3-3-3-3-3-3-3-2h3-3-3-3-3-3-3-3-3-3-3-3-3-3-3-3-------|

G|---------------------------------------------------------------------------|
D|---------------------------------------------------------------------------|
A|-----------------------------------------------------0---------------------|
E|-2h3-3-3-3-3-3-3-3-3-3-3-3-3-3-3-3-2h3-3-3-3-3-3-3-3-----------------------|

Verse x2 
G|---------------------------------------------------------------------------|
D|------------------0-0-0-----------------------0-0-0---------------------0--|
A|2-0---------0-2-3-------3-2-2-0---------0-2-3-------3-2-0---------0-2-3----|
E|----3-0-2-3---------------------3-0-2-3-------------------3-0-2-3----------|
                                                (play 2nd time only)
G|-------------------------------------------||------------------------------|
D|-0-0-------0-----------0-----------0-------||------------------------------|
A|-----3-2-0---3-2-3-2-0---3-2-3-2-0---3-2-3-||-2-0-3-3-3-3-3-3--------------|
E|-------------------------------------------||------------------------------|

Chorus
G|---------------------------------------------------------------------------|
D|---------------------------------------------------------------------------|
A|---------------------------------------------------------------------------|
E|-2h3-3-3-3-3-3-3-3-3-3-3-3-3-3-3-3-2h3-3-3-3-3-3-3-3-3-3-3-3-3-3-3-3-------|

G|---------------------------------------------------------------------------|
D|---------------------------------------------------------------------------|
A|---------------------------------------------------------------------------|
E|-2h3-3-3-3-3-3-3-3-3-3-3-3-3-3-3-3-2h3-3-3-3-3-3-3-3-3-3-3-3-3-3-3-3-------|

G|---------------------------------------------------------------------------|
D|---------------------------------------------------------------------------|
A|-------------------3-3-3-3-3-3-3-3-------------------3-3-3-3-3-3-3-3-------|
E|-2h3-3-3-3-3-3-3-3-----------------2h3-3-3-3-3-3-3-3-----------------------|

G|---------------------------------------------------------------------------|
D|---------------------------------------------------------------------------|
A|-------------------3-3-3-3-3-3-3-3-------------------0---------------------|
E|-2h3-3-3-3-3-3-3-3-----------------2h3-3-3-3-3-3-3-3-----------------------|

Verse
G|---------------------------------------------------------------------------|
D|------------------0-0-0-----------------------0-0-0---------------------0--|
A|2-0---------0-2-3-------3-2-2-0---------0-2-3-------3-2-0---------0-2-3----|
E|----3-0-2-3---------------------3-0-2-3-------------------3-0-2-3----------|

G|---------------------------------------------------------------------------|
D|-0-0-------0-----------0-----------0---------------------------------------|
A|-----3-2-0---3-2-3-2-0---3-2-3-2-0---3-2-3-2-0-3-3-3-3-3-3-----------------|
E|---------------------------------------------------------------------------|

Chorus
G|---------------------------------------------------------------------------|
D|---------------------------------------------------------------------------|
A|---------------------------------------------------------------------------|
E|-2h3-3-3-3-3-3-3-3-3-3-3-3-3-3-3-3-2h3-3-3-3-3-3-3-3-3-3-3-3-3-3-3-3-------|

G|---------------------------------------------------------------------------|
D|---------------------------------------------------------------------------|
A|---------------------------------------------------------------------------|
E|-2h3-3-3-3-3-3-3-3-3-3-3-3-3-3-3-3-2h3-3-3-3-3-3-3-3-3-3-3-3-3-3-3-3-------|

G|---------------------------------------------------------------------------|
D|---------------------------------------------------------------------------|
A|-------------------3-3-3-3-3-3-3-3-------------------3-3-3-3-3-3-3-3-------|
E|-2h3-3-3-3-3-3-3-3-----------------2h3-3-3-3-3-3-3-3-----------------------|

G|---------------------------------------------------------------------------|
D|---------------------------------------------------------------------------|
A|-------------------3-3-3-3-3-3-3-3-------------------0---------------------|
E|-2h3-3-3-3-3-3-3-3-----------------2h3-3-3-3-3-3-3-3-----------------------|

| /  slide up
| \  slide down
| h  hammer-on
| p  pull-off
| ~  vibrato
| +  harmonic
| x  Mute note