Prince - Pop Life Text Bass Tab

Learn song with the online tabulature player
Corrected version

Verse:
                  X2                X2               X2
G*--4----4----4----*--8----8-----8---*--9----9----9---*
D*-----------------*-----------------*----------------*
A*2----x----2------*6----x----6------*7----x----7-----*
E*-----------------*-----------------*----------------*
  S P  S P  S  P    S P  S P  S P     S P  S P  S  P


Chorus:
                   X2
G*------------------*--------------------* 
D*---5-------7------*---5----5----7----8-*
A*------------------*--------------------*
E*3----3/5----------*3----3----5----6----*