Prince - The Cross Chords

 
No chord
    
Standard guitar tuning:
E
A
D
G
B
E
No capo
The Ditty throughout the song is
e--------------------------|
B--------------------------|
G-1-2-4-6-7-6-4-2----------|
D--------------------------|
A--------------------------|
E--------------------------|
two chords (forget the names)
e----0---------------------|
B----0---------------------|
G----1---------------------|
D----2---------------------|
A----2---------------------|
E----0---------------------|
e--------------------------|
B----2---------------------|
G----2---------------------|
D----2---------------------|
A----0---------------------|
E--------------------------|
Thur you have it. Pretty nice song to start off on.

All Content on this page is the property of the copyright owner of the original composition.