Public Image Ltd. - The Order Of Death Text Guitar Tab

Learn the song with the online tablature player
THE ORDER OF DEATH - Public Image Ltd.

intro

Em    A    Em    A   G

verse

  Em                                                     G
-2-----0--------------------------|
---0-----0----3-----2-----3-------|
----------------4-----4-----4-----|
-----2-----2------5-----5-----5-2-|
----------------------------------|
----------------------------------|

  Em                                                     G
-2-----0--------------------------|
---0-----0----3-----2-----3-------|
----------------4-----4-----4-----|
-----2-----2------5-----5-----5-2-|
----------------------------------|
----------------------------------|

  Em                                                     G
-2-----0--------------------------|
---0-----0----3-----2-----3-------|
----------------4-----4-----4-----|
-----2-----2------5-----5-----5-2-|
----------------------------------|
----------------------------------|

  Em                                   G                                      A
                               G
-2-----0--------------------------|-5----------|-------------|
---0-----0----3-----2-----3-------|-5----------|-------------|
----------------4-----4-----4-----|------------|-------------|
-----2-----2------5-----5-----5-2-|-7----------|-------------|
----------------------------------|------------|-------------|
----------------------------------|------------|-------------|

There's one point where the intro chord sequence is played again... apart from that it's
here. anyway it's a great song and really easy to learn. enjoy.

dan