Pupil - All This Time Text Guitar Tab

Learn song with the online tabulature player
artist:pupil
album:beautiful machines
song:all this time


   this is my tab for all this time intro only...hope you like it...


Gtr 1:
   e|-----------------------------|
   B|--14-12-14~--14-12-14~-------|
   G|-----------------------12----|
   D|-----------------------------| (2x)
   A|-----------------------------|
   E|-----------------------------|

Gtr 2:
   e|-----------------------------|
   B|--8-10-----------------------|
   G|-----------------------------|
   D|-------888--10~--------------|
   A|-----------------------------|
   E|-----------------------------|
  (maririnig niyo na lang ito...mga kasabay ito ng pangalawang beses
  ng gtr 1...)

Gtr 1:
   e|-----------------------------|
   B|--14-12-14~--14-12-14--------|
   G|-----------------------------|
   D|-----------------------------|
   A|-----------------------------|
   E|-----------------------------|

tapos sabay ang guitar 1 at 2 sa chord na C#m-D...
____________________________________________________________________________

   Oi...kahit na intro lang ang nagawa ko,,,paki rate naman...i rate sana
ito ng mga pupil fans dyan...
____________________________________________________________________________

   un na lamang po ulit...good-bye!
Mabuhay Philippines!XD