Pupil - Hypersober Chords

 
No chord
    
Standard guitar tuning:
E
A
D
G
B
E
No capo
e|-------------------------------------------------------------------------|
B|-------------------------------------------------------------------------|
G|-------------------------------------------------------------------------|
D|-------------------------------------------------------------------------|
A|----0--4-4-4---4---------------------------------------------------------|
E|----0--2-2-2---2---------------------------------------------------------|
4X YAN HA SA VERSE NAMAN GANUN DIN PURO BAGSAK LANG PARANG SA INTRO BASTA POWER CHORDS
e|-------------------------------------------------------------------------|
B|-------------------------------------------------------------------------|
G|-------------------------------------------------------------------------|
D|-------------------------------------------------------------------------|
A|----0--4-4-4---4---------------------------------------------------------|
E|----0--2-2-2---2---------------------------------------------------------|
SAME AS INTRO LANG DIN F#M..
e|-------------------------------------------------------------------------|
B|-------------------------------------------------------------------------|
G|-------------------------------------------------------------------------|
D|-------------------------------------------------------------------------|
A|----0--4-4-4--------7----------------------------------------------------|
E|----0--2-2-2--------5----------------------------------------------------|
2X TO GAGAWIN DITO UNG SA PART NG KANTANG AND I TAKE IT TAKE IT ALL DRY AND ACIDS AND IM STONED.. KASAMA RIN TONG Bm-F#M
e|-------------------------------------------------------------------------|
B|-------------------------------------------------------------------------|
G|-------------------------------------------------------------------------|
D|----0--4-4-4-------------------------------------------------------------|
A|----0--2-2-2------4------------------------------------------------------|
E|----0-------------2------------------------------------------------------|
YA NAMAN Bm-F#M PAGTAPOS NITO ULITIN UNG NASA TAAS NA CHORDS UNG F#M-A TAPOS NUN ITO NA....
e|-------------------------------------------------------------------------|
B|-------------------------------------------------------------------------|
G|-------------------------------------------------------------------------|
D|-----4-4-4-4-4-4-4-4-----------------------------------------------------|
A|-----2-2-2-2-2-2-2-2-----------------------------------------------------|
E|-------------------------------------------------------------------------|
BAGSAK BAGSAK LANG... UNG IBA KASI ULIT ULIT LANG KAYA DI KO NA NILAGAY BAHALA NA KAYO SA GAGAWIN BASTA MAG PRAKTIS LANG

All Content on this page is the property of the copyright owner of the original composition.