Q And Not U - Recreation Myth Text Guitar Tab

Learn the song with the online tablature player
0:08
G|----------------------------------------------------------------44-444-444-444-4-|
D|----------------55-555-555-555-5----------------55-555-555-555-5-----------------|
A|77-777-777-777-7----------------77-777-777-777-7---------------------------------|
E|---------------------------------------------------------------------------------|

|----------------------------------------------------|
|55-555-555-555-5----------------55-555-555-55(5-5)--|(last time no (5-5)
|----------------77-777-777-777-7--------------------|
|----------------------------------------------------|x2 (from top)

1:05
G|---|-----------------------|
D|-0-|--9~~---9~~------------|
A|0--|7-----7-----0-3~~-3/7--|
E|---|-----------------------|x4

2:01   twelves
G|----------------------------------------------------------------------------|
D|------22222222-----------------------------22222222-------------------14----|
A|3-3-33--------3-3-33/12121212121212123-3-33--------3-3-33/121212121212--12--|
E|----------------------------------------------------------------------------|x2

2:29
G|-------------|
D|--12----9----|
A|10--10\7-7/--|
E|-------------|x4

2:43
G|--------------------------------------------------------|
D|--------------------------------------------------------|
A|7-7-7-7-7-7-7-7-7-7-7-7-7-7-7-7-7-7-7-7-7-7-7-7-7-7-7-7-|
E|--------------------------------------------------------|

2:57
G|-----------------------|
D|--9~~---9~~------------|           <---this part overlaps the last one
A|7-----7-----0-3~~-3/7--|
E|-----------------------|

3:10
G|----------------------------------------------------------------------------|
D|------22222222-----------------------------22222222-------------------14----|
A|3-3-33--------3-3-33/12121212121212123-3-33--------3-3-33/121212121212--12--|
E|----------------------------------------------------------------------------|x2

3:38
G|-------------------|
D|--12----9---6---9--|
A|10--10\7-7\4-4/7---|
E|-------------------|