Queen - I Want To Break Free Text Bass Tab

Learn the song with the online tablature player
Legends : - <> (It means that the measure continues to the measure below)

RIFF 1
G|-------------------|
D|-------------------|
A|---5-7-7-7-7-7-7-7-|
E|-7-----------------|

RIFF 2
G|---------------------------------------------------------------------------|
D|---------------------------------------------------------------------------|
A|---5-7-7-7-7-7-7-7-5---------------------------------------5-7-7-7-7-7-7-7-|
E|-7-------------------7-5-5-5-5-5-5-5-5-5-5-5-5-5-5-5-5-5-7-----------------|

RIFF 3
G|---------------------------------------------------------------------|-------|
D|---------------------------------------------------------------------|-------|
A|---5-7-7-7-7-7-7-7-7-5-------------------------------5-7-7-7-7-7-7-7-|---5-7-|
E|-7---------------------7-7-7-7-7-7-7-7-5-5-5-5-5-5-7-----------------|-7-----|

(RIFF 1,2,3, are played continiously in each verse, it only differs in the
number of the riffs are repeated in each verses)

BRIDGE
Before guitar and strings solo)
G|---------------------------------------------------------------------------------|
D|---------------------------------------------------------------------------------|
A|---------------------------------------------------------------------------------|
E|-7-7-7-7-7-7-7-7-5-5-5-5-5-5-5-5-7-7-7-7-7-7-7-7-5-5-5-5-5-5-5-5-3-3-3-3-3-3-3-3-|
<>
(Continues...)
G|---------------------------------------------------------------------------------|
D|---------------------------------------------------------------------------------|
A|-----------------5-5-5-5-5-5-5-5-7-7-7-7-5-5-----------------5-5-7-7-7-7-5-5-----|
E|-5-5-5-5-7-7-7-7-----------------------------7-7-5-5-5-5-7-7-----------------7-7-|<>
(Continues...)
G|-----------------------------------|
D|-----------------------------------|
A|-------------5-5-7-7-7-7-7-7-7-7-7-|
E|-5-5-5-5-7-7-----------------------|

Okay those above are the parts, know here is how you play it.

Keyboards...guitars...then... :

Verse 1
Play RIFF 1 6 times, RIFF 2 and 3 once.

Verse 2
Play RIFF 1 4 times, RIFF 2 and 3 once.

Bridge
Play the bridge part.
Guitar  : Play RIFF 1 4 times, RIFF 2 and 3 once.
Strings : Play RIFF 1 4 times, RIFF 2 once and RIFF 3 twice .

Verse 3
Play RIFF 1 4 times, RIFF 2 once and RIFF 3 twice.

Verse 4
Play RIFF 1 always until the song fades away.

ENJOY!