Queen - Rock It Text Guitar Tab

Learn song with the online tabulature player
Queen: Rock It

guitar solo:

2'32"
|-------------------------------------------(2)---------|
|-------------------------------------------------------|
|----------------------------------------2b---4---5bb7--|
|--------------------------------2---4------------------|
|------------------2---3---3h4--------------------------|
D-4----4---4---0----------------------------------------|

|----------------------------------------------------------------------------|
|-2---52-2--52-25-52-252525b7vvr5252-----------------------------------------|
|-------5-0---5-----5---------------54242-------------2b4--2--------4---4-2--|
|----------------------------------------42--------------------4p2--4---4-2--|
|------------------------------------------40--3p02---------------4----------|
|----------------------------------------------------------------------------|