Queens Of The Stone Age - Six Shooter Acoustic Text Guitar Tab

Learn the song with the online tablature player
                             SIX SHOOTER - Queens of the Stone Age

Pretty simple, this is how Nick does it acosutically, seems to work for the full band
version too, but not 100% sure on that

Riff 1
Usually strummed with the addition of a constant E chord)
e|-----------------3-3------------------------------------------------------|
B|-------------3-3----------------------------------------------------------|
G|-0-1-3-1-0-1--------------------------------------------------------------|
D|--------------------------------------------------------------------------|
A|--------------------------------------------------------------------------|
E|--------------------------------------------------------------------------|

Riff 2
First chord works as an Em or just a regular E, I tabbed it as Em)
e|-0-00-000-----------------------------------------------------------------|
B|-0-00-000----88-----------------------------------------------------------|
G|-x-xx-xxx-77-77-----------------------------------------------------------|
D|-2-22-222-77-55-----------------------------------------------------------|
A|-2-22-222-55--------------------------------------------------------------|
E|-0-00-000-----------------------------------------------------------------|

Riff 3
e|----------------------------------------------------------------------------|
B|----------------------------------------------------------------------------|
G|----------------------------------------------------------------------------|
D|-7-77-9-99-10-1010-12-13----------------------------------------------------|
A|-7-77-9-99-10-1010-12-13----------------------------------------------------|
E|-5-55-7-77-8--8-8--10-11----------------------------------------------------|

This is it, the order's pretty easy to figure out.

| /   slide up
| \   slide down
| h   hammer-on
| p   pull-off
| ~   vibrato
| +   harmonic
| x   Mute note
| b   Bend
| pb  Pre-bend
| br  Bend release
| pbr Pre-bend release
| brb Bend release bend