Queers - At The Mall Text Guitar Tab

Learn song with the online tabulature player
-------------------------------------------------------------------------------
			     at the mall - the queers
-------------------------------------------------------------------------------

By:christopher taylor		

G|---------------------------------------------------------------------------|
D|---------------------------------------------------------------------------|
A|-----5---------------------------------------------------------------------|
E|---5-----------------------------------------------------------------------|

G|---------------------------------------------------------------------------|
D|---------------------------------------------------------------------------|
A|--------5------------------------------------------------------------------|
E|--3-5-3---5----------------------------------------------------------------|