Queers - Like A Parasite Text Guitar Tab

Learn the song with the online tablature player
         Into after guitar starts
G:--------------------------------------------------------------
D:--------------------------------------------------------------
A:---2-----------------------------------------------------------
E:-3-------------------------------------------------------------

     Verse, is stummed differently for bass solo.
G:---------------------------------------------------------------

D:---------------------------------------------------------------

A:-------------------3-3 3-33-5-5-5-5------------------------------------------

E:-3-3-3-33-3-3-3-33-------------------------------------------------------

    Chorus
G:----------------------------------------------------------
D:---------------------------------------------------------
A:----------33333333-55555555-33333333-----------------------------------------------
E:-33333333-------------------------------------------------------

    Play this riff till the end of the song.
G:---------------------------------------------------------------

D:-------2-3-2-----------2-(0-5-3-2)not sure---------------------------------------

A:---2-3-------3-2---2-3-----------------------------------------------

E:-3---------------3-----------------------------------------------

    If u have any blink bass tabs from their old cd email me or
    reach me on icq at 22583233