Quruli - Good Morning Chords

 
No chord
    
Standard guitar tuning:
E
A
D
G
B
E
Capo on 1 fret
INTRO AND VERSES.
E  :3-------1-------|0-------1-------|0---------------|
B  :0-------3-------|1-------1-------|1-------1-------|
G  :0-------2-------|2-------2-------|0-------2-------|
D  :0-------0-------|2-------3-------|2-------3-------|
A  :2---------------|0---------------|3---------------|
E  :3---------------|----------------|----------------|

Chorus

E  :--------0-------|1---1---1---3---|0---0---0---1---|1---1---1---3---|
B  :--------1-------|1---1---3---3---|1---1---1---0---|1---1---3---3---|
G  :--------3-------|2---2---2---4---|0---0---2---0---|2---2---2---4---|
D  :--------2-------|3---2---0---5---|2---2---2---0---|3---2---0---5---|
A  :--------3-------|----------------|3---2---0---2---|----------------|
E  :----------------|----------------|------------3---|----------------|
E  :0---0---0---1---|1-------1-------|
B  :1---1---1---0---|3-------1-------|
G  :0---0---2---0---|2-------2-------|
D  :2---2---2---0---|0-------3-------|
A  :3---2---0---2---|----------------|
E  :------------3---|----------------|

Interlude

E  :0---------------|0---------------|1---------------|1---------------|
B  :1---------------|0---------------|3---------------|1---------------|
G  :2---------------|1---------------|2---------------|1---------------|
D  :2---------------|0---------------|0---------------|0---------------|
A  :0---------------|2---------------|----------------|----------------|
E  :----------------|0---------------|----------------|----------------|
E  :0---------------|0---------------|1---------------|3---------------|
B  :1---------------|0---------------|3---------------|3---------------|
G  :2---------------|1---------------|2---------------|4---------------|
D  :2---------------|0---------------|0---------------|5---------------|
A  :0---------------|2---------------|----------------|----------------|
E  :----------------|0---------------|----------------|----------------|
SECOND CHORUS
E  :--------0-------|1---1---1---3---|0---0---0---1---|1---1---1---3---|
B  :--------1-------|1---1---3---3---|1---1---1---0---|1---1---3---3---|
G  :--------3-------|2---2---2---4---|0---0---2---0---|2---2---2---4---|
D  :--------2-------|3---2---0---5---|2---2---2---0---|3---2---0---5---|
A  :--------3-------|----------------|3---2---0---2---|----------------|
E  :----------------|----------------|------------3---|----------------|
E  :0---0---0---1---|1-------1-------|
B  :1---1---1---0---|3-------1-------|
G  :0---0---2---0---|2-------1-------|
D  :2---2---2---0---|0-------3-------|
A  :3---2---0---2---|----------------|
E  :------------3---|----------------|

All Content on this page is the property of the copyright owner of the original composition.