R.E.M. - Star Me Kitten Text Guitar Tab

Learn song with the online tabulature player
Tab: Star Me Kitten
Artist REM
Guitar written by Pete Buck
Album: Automatic for the People
Tabbed by Andrew Dalby (December 2008)

I couldn't see this tab anywhere on the internet, so here is the notation to the most 
raw song I have ever heard.

Enjoy!


Intro

e|---------|
B|---------|
G|---4/5/7-|
D|---------|
A|---------|
E|---------|

Verse (x3)

e|-----|----------|-------------|-----|--------------------|
B|-----|----------|-------------|-----|--------------------|
G|--7--|-7h9--(9)-|-7h9-7-------|-----|---7h9-7------------|
D|-(6)-|----------|--------7--5-|--5--|---------7--5-------|
A|-----|----------|-------------|-----|--------------------|
E|-----|----------|-------------|-----|--------------------|


e|--------|--------|--------|-------------------|-------|--------|
B|----/10-|---8----|----/10-|-8-------------/10-|-8-----|--------|   play
G|-7------|--------|-7------|---9--7--5/7-------|-------|-5-8-7--|o  three
D|--------|--------|--------|-------------------|-------|--------|o  times
A|--------|--------|--------|-------------------|-------|--------|
E|--------|--------|--------|-------------------|-------|--------|

then comes the bridge:

    you?                 Have we lost our minds?
e|------|--------------|------------|------------|---------|----------|
B|------|-10--8--------|-----10p8---|------------|-10--8---|----------|
G|---5--|--------9--7--|--9-------9/|/5----------|-------9-|-7--------|
D|------|--------------|------------|------------|---------|----------|
A|------|--------------|------------|------------|---------|----------|
E|------|--------------|------------|------------|---------|----------|

                         Will this never end?
e|------|--------------|------------|------------|---------|----------|
B|------|-10--8--------|-----10p8---|------------|-10--8---|----------|
G|---5--|--------9--7--|--9-------9/|/5----------|-------9-|-7--------|
D|------|--------------|------------|------------|---------|----------|
A|------|--------------|------------|------------|---------|----------|
E|------|--------------|------------|------------|---------|----------|

                         It could     depend on    your take
e|------|--------------|------------|------------|--------------|
B|------|-10--8--------|-----10p8---|------------|--------------|
G|---5--|--------9--7--|--9-------9/|/5-------8--|--7----4/5/7--|
D|------|--------------|------------|------------|--------------|
A|------|--------------|------------|------------|--------------|
E|------|--------------|------------|------------|--------------|

Verse

          You.          Me.      We used to be on  fire
e|------|--------------|------------|------------|---------|----------|
B|------|--------------|------------|------------|---------|----------|
G|---7--|-7h9----------|------------|-7h9-7------|---------|----------|
D|------|--------------|------------|--------7--5|--5------|----------|
A|------|--------------|------------|------------|---------|----------|
E|------|--------------|------------|------------|---------|----------|

      If keys are all that stand between, can I throw in the ring? No gaso-
e|------|--------------|------------|-------|---------|----------|--------|
B|------|--------------|--------/10-|-8-----|-----/10-|-8--------|----/10-|
G|------|-7h9--7-------|-----7------|-------|-7-------|---9-7--5/|/7------|
D|------|-----------7-5|------------|-------|---------|----------|--------|
A|------|--------------|------------|-------|---------|----------|--------|
E|------|--------------|------------|-------|---------|----------|--------|

  -line. Just fuck me      kit-ten
e|---------|--------------|------------|
B|-8-------|--------------|------------|
G|---------|----5---8-----|-7----------|
D|---------|--------------|----5-------|
A|---------|--------------|------------|
E|---------|--------------|------------|

1.You   are wild,     and I'm      in your possession.
                       2. I'm      in your possession,
e|---------|--------------|------------|-----------------|
B|-----/10-|-8------------|--------/10-|-8---------------|
G|-7-------|--------------|-7----------|-----9--7---5/---|
D|---------|--------------|------------|-----------------|
A|---------|--------------|------------|-----------------|
E|---------|--------------|------------|-----------------|

 Noth- -ings free.      so fuck   me     kit-  -ten.
                        so fuck   me     kit-  -ten.
e|---------|--------------|------------|-----------------||--------||
B|-----/10-|-8------------|------------|-----------------||--------||
G|-7-------|--------------|-5------8---|--7-------------o||------=-||
D|---------|--------------|------------|---------5------o||--------||
A|---------|--------------|------------|-----------------||--------||
E|---------|--------------|------------|-----------------||--------||

Verse Lyrics:

Keys cut, three for the price of one
Nothing's free but guaranteed for a lifetime's use
I've changed the locks
And you can't have one

You, you know the other two
The brakes have worn so thin that you could hear,
I hear them screeching through the door from our driveway

Hey love, look into your glovebox heart
What is there for me inside? This love is tired
I've changed the locks. Have I misplaced you?