Rainbow - Since You Been Gone Text Bass Tab

Learn the song with the online tablature player
Song: Since You've Been Gone
Artist: Rainbow
Album: Down To Earth (Sept 1979)

Intro
G|-----------------------------------------------|
D|*----------------------------------------------|
A|*-----------5-5--7-7-7--3-3------5-7-3/5-------|
E|----12/3-3-3----------------3-3-3--------------|

Verse
G|---------------------------------------------------------------|
D|*---5--4--2----------------------5--4--2--------------5--4--2--|
A|*-----------5--3--2--0--2--3--5-----------5--3--2--0-----------|
E|---------------------------------------------------------------|

G|-------------------------------------------------------|
D|*-------------7----------------------------------------|
A|*---6----6--8---8-6----5-3-0-2-3-5---------------------|
E|-------------------------------------------------------|

Chorus
G|-------------------------------------------------|
D|*------------------------------------------------|
A|*-----------5-5--7-7-7--3-3--------5-7-3-3-3-5-5-|
E|----3-3-3--------------------3-3-3---------------|

Verse
G|---------------------------------------------------------------|
D|*---5--4--2----------------------5--4--2--------------5--4--2--|
A|*-----------5--3--2--0--2--3--5-----------5--3--2--0-----------|
E|---------------------------------------------------------------|

G|-------------------------------------------------------|
D|*-------------7----------------------------------------|
A|*---6----6--8---8-6----5-3-0-2-3-5---------------------|
E|-------------------------------------------------------|

Bridge                              x2
G|------------------------------------|
D|*----------------------2------------|
A|*---------2--3--5--2-5---5--3-2---5-|
E|----3--5------------------------5---|

Chorus
G|-------------------------------------------------|
D|*------------------------------------------------|
A|*-----------7-7--9-9-9--5-5--------7-9-5-5-5-3-3-|
E|----5-5-5--------------------5-5-5---------------|

Outro
rpt/fade
G|-----------------------------------------------|
D|*----------------------------------------------|
A|*-----------7-7--9-9-9--5-5------7-9-5-5-5-7-7-|
E|-------5-5-5----------------5-5-5--------------|

ROCK ON!!!!

+88_______________________________
_+880_____________________________
_++88_____________________________
_++88_____________________________
__+880_________________________++_
__+888________________________+88_
__++880______________________+88__
__++888_____+++88__________+++8__
__++8888__+++8880++88____+++88___
__+++8888+++8880++8888__++888____
___++888++8888+++888888++888_____
___++88++8888++8888888++888______
___++++++888888888888888888______
____++++++88888888888888888______
_____+++++++000088888888888______
______+++++++00088888888888______
_______+++++++088888888888_______
_______+++++++088888888888_______
________+++++++8888888888________
________+++++++0088888888________
________++++++0088888888_________