Ram Jam - Black Betty Text Bass Tab

Learn the song with the online tablature player
SONG:Black Betty

ARTIST:Ram Jam

NOTES - Be note of the time changes in the verses - time signature changes
are noted above the tab.

INTRO

  Gong                       Guitar                             Gong
G--------------|--------------|--------------|--------------|--------------|
D--------------|--------------|--------------|--------------|--------------|
A--------------|--------------|--------------|--------------|--------------|
E--------------|--------------|--------------|--------------|--------------|

G---------------------------|-----------------|-----------------|-----------------|
D---------------------------|-----------------|-----------------|-----------------|
A---------------------------|-----------------|-----------------|-----------------|
E-7--7--7--7-7-7--7-7-7---5-|-7-7-----------5-|-7-7-----------5-|-7-7-----------5-|
  |_______muted_______|

G-------------------|-------------------|-------------------|
D-------------------|-------------------|-------------------|
A-----------------7-|-----------------5-|-----------------7-|
E-7-7---7---7-------|-7-7---7---7---7---|-7-7---7---7---7---|

G-------------------|-------------------|-------------------|
D-------------------|-------------------|-------------------|
A-----------5-------|-------------------|-------------------|
E-----7-------------|----7--------------|-------------------|
                             let ring

G-------------------|----------------------|
D-------------------|----------------------|
A-------------------|----------------------|
E-----7-------------|----------------------|
     let ring

VERSE                                 2                4
                                      4                4
G---------------|---------------|---------------|---------------|
D---------------|---------------|---------------|---------------|
A---------------|---------------|---------------|---------------|
E--7------------|---------------|-----------7---|-----------7---|

G---------------|---------------|---------------|---------------|
D---------------|---------------|---------------|---------------|
A---------------|---------------|---------------|---------------|
E-----------7---|-----------7---|-----------7---|-----------7---|

       2
       4
G--------------|
D--------------|
A--------------|
E--------------|

2nd INTRO

            Guitar                Gong
G--------------|--------------|--------------|
D--------------|--------------|--------------|
A--------------|--------------|--------------|
E--------------|--------------|--------------|

G---------------------------|-----------------|-----------------|-----------------|
D---------------------------|-----------------|-----------------|-----------------|
A---------------------------|-----------------|-----------------|-----------------|
E-7--7--7--7-7-7--7-7-7---5-|-7-7-----------5-|-7-7-----------5-|-7-7-----------5-|
  |_______muted_______|

G-------------------|-------------------|-------------------|
D-------------------|-------------------|-------------------|
A-----------------7-|-----------------5-|-----------------7-|
E-7-7---7---7-------|-7-7---7---7---7---|-7-7---7---7---7---|

G-------------------|-------------------|
D-------------------|-------------------|
A-----------5-------|-------------------|
E-----7-------------|----7--------------|
                             let ring

VERSE 2                               2                4
                                      4                4
G---------------|---------------|---------------|---------------|
D---------------|---------------|---------------|---------------|
A---------------|---------------|---------------|---------------|
E--7------------|---------------|-----------7---|-----------7---|

G---------------|---------------|---------------|---------------|
D---------------|---------------|---------------|---------------|
A---------------|---------------|---------------|---------------|
E-----------7---|-----------7---|-----------7---|-----------7---|

MIDDLE
make sure you swing it!

G---------------------------------------------------|
D---------------------------------------------------|
A---5---5---5---5---5-7-7-5------------------5------|
E------------------------------0---2---5-6-7-----7--|

G---------------------------------------------------|
D---------------------------------------------------|
A---5---5---5---5---5-7-7-5------------------5------|
E------------------------------0---2---5-6-7-----7--|

drum break

G---------------------------------------------------|
D---------------------------------------------------|
A---5---5---5---5---5-7-7-5------------------5------|
E------------------------------0---2---5-6-7-----7--|

drum break

G---------------------------------------------------|
D---------------------------------------------------|
A---5---5---5---5---5-7-7-5------------------5------|
E------------------------------0---2---5-6-7-----7--|

G------------------------------------------|
D------------------------------------------|
A---2-----2-----2------2----------2--3--4--|
E------------------------------------------|

TEMPO CHANGE - deep breath now...

G-----------------|-----------------|-----------------|-----------------|
D-0-0-----0-0-3-4-|-0-0-----0-0-3-4-|-0-0-----0-0-3-4-|-0-0-----0-0-----|
A-----2-0---------|-----2-0---------|-----2-0---------|-----2-0-----2-0-|
E-----------------|-----------------|-----------------|-----------------|

G-----------------|-----------------|-----------------|-----------------|
D-----------------|-----------------|-0-0-----0-0-3-4-|-0-0-----0-0-----|
A-----------------|-----2-2-3-3-4-4-|-----2-0---------|-----2-0-----4-3-|
E-3-3-3-3-3-3-3-3-|-3-3-------------|-----------------|-----------------|

G---------------4-|-----------------|-----------------|-----------------|
D---------2-2-4---|-------------2-4-|-------------2-4-|-------------2-4-|
A-2-2-5-5---------|-2-2-----2-2-----|-2-2-----2-2-----|-2-2-----2-2-----|
E-----------------|-----4-2---------|-----4-2---------|-----4-2---------|

G-----------------|-----------------|-----------------|-----------------|
D-------------5-7-|-------------5-7-|-------------5-7-|-------------5-7-|
A-5-5-----5-5-----|-5-5-----5-5-----|-5-5-----5-5-----|-5-5-----5-5-----|
E-----7-5---------|-----7-5---------|-----7-5---------|-----7-5---------|

G-------------5-7-|-------------5-7-|-----------------|-----------------|
D-5-5-----5-5-----|-5-5-----5-5-----|-------------5-7-|-------------5-7-|
A-----7-5---------|-----7-5---------|-5-5-----5-5-----|-5-5-----5-5-----|
E-----------------|-----------------|-----7-5---------|-----7-5---------|

G-----------------|-----------------|-----------------|-----------------|
D-------------2-4-|-------------2-4-|-------------2-4-|-------------2-4-|
A-2-2-----2-2-----|-2-------2-2-----|-2-2-----2-2-----|-2-2-----2-2-----|
E-----4-2---------|---0-2-0---------|-----4-2---------|-----4-2---------|

G-----------------|-----------------|-----------------|-----------------|
D-------------5-7-|-------------5-7-|-------------5-7-|-------------5-7-|
A-5-5-----5-5-----|-5-5-----5-5-----|-5-5-----5-5-----|-5-5-----5-5-----|
E-----7-5---------|-----7-5---------|-----7-5---------|-----7-5---------|

G-----------------|-----------------|-----------------|-----------------|
D-------------2-4-|-------------2-4-|-------------2-4-|-------------2-4-|
A-2-2-----2-2-----|-2-2-----2-2-----|-2-2-----2-2-----|-2-2-----2-2-----|
E-----4-2---------|-----4-2---------|-----4-2---------|-----4-2---------|

G-----------------|-----------------------|-----------------|-----------------------|
D-----------------|-12-12-9----12-12-9----|-----------------|-12-12-9----12-12-9----|
A-5-5-2-0-5-5-2-0-|---------12---------12-|-5-5-2-0-5-5-2-0-|---------12---------12-|
E-----------------|-----------------------|-----------------|-----------------------|

G-----------------|-----------------|-----------------|-----------------|
D-------------2-4-|-------------2-4-|-------------2-4-|-------------2-4-|
A-2-2-----2-2-----|-2-2-----2-2-----|-2-2-----2-2-----|-2-2-----2-2-----|
E-----4-2---------|-----4-2---------|-----4-2---------|-----4-2---------|

G-----------------|-----------------|-----------------|-----------------|
D-------------5-7-|-------------5-7-|-------------5-7-|-------------5-7-|
A-5-5-----5-5-----|-5-5-----5-5-----|-5-5-----5-5-----|-5-5-----5-5-----|
E-----7-5---------|-----7-5---------|-----7-5---------|-----7-5---------|

G-----------------|-----------------|-----------------|
D-------------2-4-|-------------2-4-|-------------2-4-|
A-2-2-----2-2-----|-2-2-----2-2-----|-2-2-----2-2-----|
E-----4-2---------|-----4-2---------|-----4-2---------|

TEMPO CHANGE!!!

G--------------------|
D--9--7--------------|
A--------9--8--7-----|
E----------------10--|

G---------------------|------------------9-7-|---------------------|
D-----9-------7-----7-|-----9-------7--7---7-|-----9-------7-----7-|
A---------7-9---7-9---|---------7-9----------|---------7-9---7-9---|
E-7-------------------|-7--------------------|-7-------------------|

G---------------------|---------------------|------------------9-7-|
D-------------7-------|-----9-------7-----7-|-----9-------7--7---7-|
A---------7-9-----7-5-|---------7-9---7-9---|---------7-9----------|
E-5---8-9-------------|-7-------------------|-7--------------------|

G---------------------|---------------------|
D-----9-------7-----7-|-------------7---8---|
A---------7-9---7-9---|---------7-9---------|
E-7-------------------|-5---8-9-------------|

drum break

G---------------------------------------------------|
D---------------------------------------------------|
A---5---5---5---5---5-7-7-5------------------5------|
E------------------------------0---2---5-6-7-----7--|

drum break

G---------------------------------------------------|
D---------------------------------------------------|
A---5---5---5---5---5-7-7-5------------------5------|
E------------------------------0---2---5-6-7-----7--|

G------------------------------------------|
D------------------------------------------|
A---2-----2-----2------2----------2--------|
E------------------------------------------|
                                  let ring

VERSE 3                               2                4
                                      4                4
G---------------|---------------|---------------|---------------|
D---------------|---------------|---------------|---------------|
A---------------|---------------|---------------|---------------|
E---------------|---------------|-----------7---|-----------7---|

G---------------|---------------|---------------|---------------|
D---------------|---------------|---------------|---------------|
A---------------|---------------|---------------|---------------|
E-----------7---|-----------7---|-----------7---|-----------7---|

G--------------------|
D-12-12-12-----------|
A----------14--------|
E--------------------|
      crash ending

Have fun play this one. this is a very good song to jam to.