Rammstein - Sonne Text Guitar Tab

Learn the song with the online tablature player
Intro
x2)

e||------------------------------|----------------------------------||
B||------------------------------|----------------------------------||
G||------------------------------|----------------------------------||
D||-0-0-6-0-6-5-0----0-0-6-0-6-0-|-0-0-6-0-6-5-0----0-0-6-0-6-5-5-5-||
A||-0-0-6-0-6-5-0----0-0-6-0-6-0-|-0-0-6-0-6-5-0----0-0-6-0-6-5-5-5-||
D||-0-0-6-0-6-5-0----0-0-6-0-6-0-|-0-0-6-0-6-5-0----0-0-6-0-6-5-5-5-||

Verse 1

e||-------------------------------------------------------||Play when
B||-------------------------------------------------------||there is
G||-------------------------------------------------------||no vocals
D||-------------------------0-0-6-0-6-5-0----0-0-6-0-6-0--||during the
A||-------------------------0-0-6-0-6-5-0----0-0-6-0-6-0--||verse
D||-------------------------0-0-6-0-6-5-0----0-0-6-0-6-0--||
Alle warten auf das licht...

Pre-Chorus

e||------------------------------||Bass plays
B||------------------------------||
G||------------------------------||
D||------------------------------||
A||------------------------------||
D||-----------9/-----------------||
  Und die velt selt lauf bis zen

Chorus
           x2                3rd time            4th time
e||---------------------|--------------------||--------------------||
B||---------------------|--------------------||--------------------||
G||---4-----------4-----|---4----------------||---4----------------||
D||---4---2---0---4-----|---4---2---5---4----||---4---4---5---4----||
A||---2---2---0---2-----|---2---2---5---4----||---2---4---5---4----||
D||-------2---0---------|-------2---5---4----||---2---4---5---4----||
Hier komt die sonne...  Sie ist der hellste...  Hier komt die sonne

Interlude
1:24)(The same as intro-play once)

Verse 2

e||--------------------------------------------||Bass plays
B||--------------------------------------------||
G||--------------------------------------------||
D||--------------------------------------------||
A||--------------------------------------------||
D||---0~--------------------------------0~-----||
 Die sonne scheint mir aus den händen...

   After “Legt sich heiss auf das gesicht”
e||---------------------------------------||
B||---------------------------------------||
G||---------------------------------------||
D||--0-0-6-0-6-5-0---0-0-6-0-6-0----------||
A||--0-0-6-0-6-5-0---0-0-6-0-6-0----------||
D||--0-0-6-0-6-5-0---0-0-6-0-6-0----------||

After “Sie wird heut nacht nicht untergehen”
e||---------------------------------------||
B||---------------------------------------||
G||---------------------------------------||
D||--0-0-6-0-6-5-0---0-0-6-0-6-0----------||
A||--0-0-6-0-6-5-0---0-0-6-0-6-0----------||
D||--0-0-6-0-6-5-0---0-0-6-0-6-0----------||

Pre-Chorus

Chorus
x2)

Verse 3
2:47)

Symphonic part arranged for guitar
e||------------------|------------------||
B||------------------|------------------||
G||------------------|------------------||
D||------------------|------------------||
A||------7---5---3---|------7---5---3---||
D||--9---------------|--9---------------||
 Die sonne scheint...

e||---------------------|--------------------||
B||---------------------|--------------------||
G||---------------------|--------------------||
D||-------9-------------|-------9------------||
A||---7-------10---9----|---7-------10---9---||
D||---------------------|--------------------||
 Legt sich schmerzend auf...

Chorus
x2)

Outro
4:04)

Guitar, bass and drums off: Symphonic part of Verse 3 again,
during the vocals of the end.