Ramones - Teenage Lobotomy Text Guitar Tab

Learn song with the online tabulature player
----------------------------------------------------------------------------
Song name: TEENAGE LOBOTOMY
Artist:    RAMONES
Album:     ROCKET TO RUSSIA (1977)
----------------------------------------------------------------------------
- Guitar TAB -

Tabbed by: headbanger_89

Tuning: STANDARD


:: Intro ::

Lobotomy!
Lobotomy!
Lobotomy!
Lobotomy!

e|--------------------------------------------------------------------------|
B|--------------------------------------------------------------------------|
G|--9--11-------------------------------------------------------------------|
D|--9--11--9--9-9-9-9-9-9---------------------------------------------------|
A|--7--9---9--9-9-9-9-9-9---------------------------------------------------|
E|---------7--7-7-7-7-7-7---------------------------------------------------|

e|--------------------------------------------------------------------------|
B|--------------------------------------------------------------------------|
G|--9--9-9-7-----9--9-9-7-----9--9-9-7-----9--9-9-7-------------------------|
D|--9--9-9-7-7---9--9-9-7-7---9--9-9-7-7---9--9-9-7-7-----------------------|
A|--7--7-7-5-7---7--7-7-5-7---7--7-7-5-7---7--7-7-5-7-----------------------|
E|-----------5------------5------------5------------5-----------------------|

e|--------------------------------------------------------------------------|
B|--------------------------------------------------------------------------|
G|--------7--7-7-7-7-7-7-------7--7-7-7-7-7-7-------------------------------|
D|--7--5--7--7-7-7-7-7-7-7--5--7--7-7-7-7-7-7-------------------------------|
A|--7--5--5--5-5-5-5-5-5-7--5--5--5-5-5-5-5-5-------------------------------|
E|--5--3-----------------5--3-----------------------------------------------|


:: Verse 1::

DDT did a job on me!
Now I am a real sickie!
Guess I'll have to break the news!
That I got no mind to lose!

(X 2)
e|--------------------------------------------------------------------------|
B|--------------------------------------------------------------------------|
G|-------------------------------9--9-9-9--9-9-9--9-9-9-9-9-9---------------|
D|--7--7-7-7--7-7-7--7-7-7-7-7-7-9--9-9-9--9-9-9--9-9-9-9-9-9---------------|
A|--7--7-7-7--7-7-7--7-7-7-7-7-7-7--7-7-7--7-7-7--7-7-7-7-7-7---------------|
E|--5--5-5-5--5-5-5--5-5-5-5-5-5--------------------------------------------|

All the girls are in love with me!

e|--------------------------------------------------------------------------|
B|--------------------------------------------------------------------------|
G|--------------------------------------------------------------------------|
D|--7--7-7-7--7-7-7--7-7-7-7-7-7--------------------------------------------|
A|--7--7-7-7--7-7-7--7-7-7-7-7-7--------------------------------------------|
E|--5--5-5-5--5-5-5--5-5-5-5-5-5--------------------------------------------|

I'm a teenage lobotomy!

e|--------------------------------------------------------------------------|
B|--------------------------------------------------------------------------|
G|--9--9-9-9--9-9--11-----------------9--11---------------------------------|
D|--9--9-9-9--9-9--11--9--9-9-9-9-9-9-9--11--9--9-9-9-9-9-9-----------------|
A|--7--7-7-7--7-7--9---9--9-9-9-9-9-9-7--9---9--9-9-9-9-9-9-----------------|
E|---------------------7--7-7-7-7-7-7--------7--7-7-7-7-7-7-----------------|

e|--------------------------------------------------------------------------|
B|--------------------------------------------------------------------------|
G|--9--9-9-7-----9--9-9-7-----9--9-9-7-----9--9-9-7-------------------------|
D|--9--9-9-7-7---9--9-9-7-7---9--9-9-7-7---9--9-9-7-7-----------------------|
A|--7--7-7-5-7---7--7-7-5-7---7--7-7-5-7---7--7-7-5-7-----------------------|
E|-----------5------------5------------5------------5-----------------------|

e|--------------------------------------------------------------------------|
B|--------------------------------------------------------------------------|
G|--------7--7-7-7-7-7-7-------7--7-7-7-7-7-7-------------------------------|
D|--7--5--7--7-7-7-7-7-7-7--5--7--7-7-7-7-7-7-------------------------------|
A|--7--5--5--5-5-5-5-5-5-7--5--5--5-5-5-5-5-5-------------------------------|
E|--5--3-----------------5--3-----------------------------------------------|


:: Verse 2 ::

Slugs and snails are after me!
DDT did a me happy!
Now I guess I'll have to tell 'em!
That I got no cerebellum!

(X 2)
e|--------------------------------------------------------------------------|
B|--------------------------------------------------------------------------|
G|-------------------------------9--9-9-9--9-9-9--9-9-9-9-9-9---------------|
D|--7--7-7-7--7-7-7--7-7-7-7-7-7-9--9-9-9--9-9-9--9-9-9-9-9-9---------------|
A|--7--7-7-7--7-7-7--7-7-7-7-7-7-7--7-7-7--7-7-7--7-7-7-7-7-7---------------|
E|--5--5-5-5--5-5-5--5-5-5-5-5-5--------------------------------------------|

Gonna get my p.h.d.!

e|--------------------------------------------------------------------------|
B|--------------------------------------------------------------------------|
G|--------------------------------------------------------------------------|
D|--7--7-7-7--7-7-7--7-7-7-7-7-7--------------------------------------------|
A|--7--7-7-7--7-7-7--7-7-7-7-7-7--------------------------------------------|
E|--5--5-5-5--5-5-5--5-5-5-5-5-5--------------------------------------------|

I'm a teenage lobotomy!

e|--------------------------------------------------------------------------|
B|--------------------------------------------------------------------------|
G|--9--9-9-9--9-9--11-----------------9--11---------------------------------|
D|--9--9-9-9--9-9--11--9--9-9-9-9-9-9-9--11--9--9-9-9-9-9-9-----------------|
A|--7--7-7-7--7-7--9---9--9-9-9-9-9-9-7--9---9--9-9-9-9-9-9-----------------|
E|---------------------7--7-7-7-7-7-7--------7--7-7-7-7-7-7-----------------|

e|--------------------------------------------------------------------------|
B|--------------------------------------------------------------------------|
G|--9--9-9-7-----9--9-9-7-----9--9-9-7-----9--9-9-7-------------------------|
D|--9--9-9-7-7---9--9-9-7-7---9--9-9-7-7---9--9-9-7-7-----------------------|
A|--7--7-7-5-7---7--7-7-5-7---7--7-7-5-7---7--7-7-5-7-----------------------|
E|-----------5------------5------------5------------5-----------------------|

e|--------------------------------------------------------------------------|
B|--------------------------------------------------------------------------|
G|--------7--7-7-7-7-7-7-------7--7-7-7-7-7-7-------------------------------|
D|--7--5--7--7-7-7-7-7-7-7--5--7--7-7-7-7-7-7-------------------------------|
A|--7--5--5--5-5-5-5-5-5-7--5--5--5-5-5-5-5-5-------------------------------|
E|--5--3-----------------5--3-----------------------------------------------|


:: Pre-verse ::

Lobotomy!
Lobotomy!
Lobotomy!
Lobotomy!

e|--------------------------------------------------------------------------|
B|--------------------------------------------------------------------------|
G|--9--11-------------------------------------------------------------------|
D|--9--11--9--9-9-9-9-9-9---------------------------------------------------|
A|--7--9---9--9-9-9-9-9-9---------------------------------------------------|
E|---------7--7-7-7-7-7-7---------------------------------------------------|

e|--------------------------------------------------------------------------|
B|--------------------------------------------------------------------------|
G|--9--9-9-7-----9--9-9-7-----9--9-9-7-----9--9-9-7-------------------------|
D|--9--9-9-7-7---9--9-9-7-7---9--9-9-7-7---9--9-9-7-7-----------------------|
A|--7--7-7-5-7---7--7-7-5-7---7--7-7-5-7---7--7-7-5-7-----------------------|
E|-----------5------------5------------5------------5-----------------------|

e|--------------------------------------------------------------------------|
B|--------------------------------------------------------------------------|
G|--------7--7-7-7-7-7-7-------7--7-7-7-7-7-7-------------------------------|
D|--7--5--7--7-7-7-7-7-7-7--5--7--7-7-7-7-7-7-------------------------------|
A|--7--5--5--5-5-5-5-5-5-7--5--5--5-5-5-5-5-5-------------------------------|
E|--5--3-----------------5--3-----------------------------------------------|


:: Verse 3 :: --> such as the first

DDT did a job on me!
Now I am a real sickie!
Guess I'll have to break the news!
That I got no mind to lose!

(X 2)
e|--------------------------------------------------------------------------|
B|--------------------------------------------------------------------------|
G|-------------------------------9--9-9-9--9-9-9--9-9-9-9-9-9---------------|
D|--7--7-7-7--7-7-7--7-7-7-7-7-7-9--9-9-9--9-9-9--9-9-9-9-9-9---------------|
A|--7--7-7-7--7-7-7--7-7-7-7-7-7-7--7-7-7--7-7-7--7-7-7-7-7-7---------------|
E|--5--5-5-5--5-5-5--5-5-5-5-5-5--------------------------------------------|

All the girls are in love with me!

e|--------------------------------------------------------------------------|
B|--------------------------------------------------------------------------|
G|--------------------------------------------------------------------------|
D|--7--7-7-7--7-7-7--7-7-7-7-7-7--------------------------------------------|
A|--7--7-7-7--7-7-7--7-7-7-7-7-7--------------------------------------------|
E|--5--5-5-5--5-5-5--5-5-5-5-5-5--------------------------------------------|

I'm a teenage lobotomy!

e|--------------------------------------------------------------------------|
B|--------------------------------------------------------------------------|
G|--9--9-9-9--9-9--11-----------------9--11---------------------------------|
D|--9--9-9-9--9-9--11--9--9-9-9-9-9-9-9--11--9--9-9-9-9-9-9-----------------|
A|--7--7-7-7--7-7--9---9--9-9-9-9-9-9-7--9---9--9-9-9-9-9-9-----------------|
E|---------------------7--7-7-7-7-7-7--------7--7-7-7-7-7-7-----------------|

e|--------------------------------------------------------------------------|
B|--------------------------------------------------------------------------|
G|--9--9-9-7-----9--9-9-7-----9--9-9-7-----9--9-9-7-------------------------|
D|--9--9-9-7-7---9--9-9-7-7---9--9-9-7-7---9--9-9-7-7-----------------------|
A|--7--7-7-5-7---7--7-7-5-7---7--7-7-5-7---7--7-7-5-7-----------------------|
E|-----------5------------5------------5------------5-----------------------|

e|--------------------------------------------------------------------------|
B|--------------------------------------------------------------------------|
G|--------7--7-7-7-7-7-7-------7--------------------------------------------|
D|--7--5--7--7-7-7-7-7-7-7--5--7--------------------------------------------|
A|--7--5--5--5-5-5-5-5-5-7--5--5--------------------------------------------|
E|--5--3-----------------5--3-----------------------------------------------|