Ratt - Lay It Down Text Guitar Tab

Learn the song with the online tablature player
OK -- this is probably the best song any 80's hair band ever did.
I tabbed it out just because i like it.  No one will probably see it
but here it is.  "Who is RATT?!?!" Just an 80's hair band lost in the
mix with all the others.

p= pull off
h= hammer on
/= slide up
\= slide down

INTRO
--------------------------------------------------------------------|
---------------8-p-7------------------------------------------------|
--7------------7------------9-p-7--------9-----10-------------------|
--7------------7------------7------------7-----8--------------------|
--5------------5------------5---------------------------------------|
---------0--0---------0--0---------0--0-----0-----------------------|
____________________________________________________________________

--------------------------------------------------------------------|
-----------------------------------------8-p-7----------------------|
--------10--------5-----5-----7----------7------------9-p-7---------|
--------8---------5-----5-----7----------7------------7-------------|
--5--5-------5/7--------------5----------5------------5-------------|
---------------------0-----0-------0--0---------0--0---------0--0---|
____________________________________________________________________

                | Drums enter here
--------------------------------------------------------------------|
--------------------------------------------------------------------|
--5-----10-------------------------------------------7--------------|
--7-----8--------------------------------------------7--------------|
--9-----5-------0--0--0--2--2--2--2/3--3--3--3/5-----5--------------|
-----0----------0--0--0--2--2--2--2/3--3--3--3/5--0-----------------|
_____________________________________________________________________

--------------------------------------------------------------------|
--------8-p-7-----------------------------------------------8-------|
--------7------------9-p-7--------9-----10---------10-------5-------|
--------7------------7------------7-----8----------8--------5-------|
--------5------------5------------5-----5----5--5------5/7--7-------|
--0--0---------0--0---------0--0-----0------------------------------|
_____________________________________________________________________

--------------------------------------------------------------------|
-----8--------------8-p-7-------------------------------------------|
-----5-----7--------7------------9-p-7--------9--5------------------|
-----5-----7--------7------------7------------7--5------------------|
-----7-----5--------5------------5------------5--3------------------|
--0-----0-----0--0---------0--0---------0--0------------------------|
_____________________________________________________________________

--------------------------------------------------------------------|
-----------6-p-5---------------------3------------------------------|
-----5--5---------5------------------2-----------5--7---------------|
--5----------------------------------0-----------5--7---------------|
-------------------------------------0-----------3--5---------------|
----------------------X(pick slide)--0------------------------------|
_____________________________________________________________________
_____________________________________________________________________

VERSE
(the whole time during the verse there is another guitar playing
       a Palm muted open low D) THis repeats 1X
    "i know you don't really know me. . . ."
--------------------------------------------------------------------|
--------------------------------------------------------------------|
-------------------------------------7--5-------------------5--7----|
-------------------------------------7--5-------------------5--7----|
--------------------------------------------------------------------|
--------------------------------------------------------------------|
_____________________________________________________________________

--------------------------------------------------------------------|
--------5--5-h-6--------------5-------------------------------------|
--------5--5------------------5-------------------------------------|
---------------------------------------7----------------------------|
---------------------------------------5----------------------------|
--------------------------------------------------------------------|

_____________________________________________________________________

          "You know you really want to. . . "
----------------------------------------------------------------------|
--------------------------------8--6------------6--------5------------|
----------------7---------------7--5------------5--------5------------|
----------------5-----------------------------------------------------|
--2--3----------------------------------------------------------------|
--2--3--------------------3--3------------3--3-----5--5-----5-5-5-5-5-|
_____________________________________________________________________

--------------------------------------------------------------------|
----------------------------------7---7-----------------------------|
--7------------------5---7--------5---7-----------------------------|
--7------7-p-5-p-0---5---7--------5---7-----------------------------|
--5------------------3---5--------3---5---2---2--3------------------|
--0---------------------------------------2---2--3------------------|
_____________________________________________________________________

    "I know you really want to. . . ."
--------------------------------------------------------------------|
--------------------------8---6----------6---------5----------------|
--------7-----------------7---5----------5---------5------------7---|
--------5-------------------------------------------------------7---|
----------------------------------------------------------------5---|
--------------------3--3-----------3--3------5--5-----5-5-5-5-------|
_____________________________________________________________________

CHORUS
same as intro
_____________________________________________________________________