Red Hot Chili Peppers - Otherside Text Guitar Tab

Learn the song with the online tablature player
intro
How long, how long.......
(a)                            (b)
------------------------15----|-----3--------------5-------------------------
--13--------------12----------|-----3--------------5-------------------------
------------------------------|-----4--------------6-------------------------
------------------------------|-----5--------------7-------------------------
------------------------------|-----5--------------7-------------------------
------------------------------|-----3--------------5-------------------------
Verse form
(a) x3
(b) x1
(a) x3
(b) x3
heard your voice through a photograph........

chorus
---------------------9--9--9--9/12--12--12--12-------------------------------
how long how long............

verse
(a)                            (b)
------------------------15----|-----3--------------5-------------------------
--13--------------12----------|-----3--------------5-------------------------
------------------------------|-----4--------------6-------------------------
------------------------------|-----5--------------7-------------------------
------------------------------|-----5--------------7-------------------------
------------------------------|-----3--------------5-------------------------
Verse form
(a) x3
(b) x1
(a) x3
(b) x3

Pour my life into a paper cup.......

chorus
    |-------------Harmonics--------------------|
-----12-----12-------12------------------------------------------------------
------------------10/12--12-12-12---12h15--12-12-12h15-12-12h15-12--12h5-----
--10--10-10-10-10------------------------------------------------------------

at this point, lead just continues to play notes from the solo, drops
put, and
then comes back in with the solo.