Red Hot Chili Peppers - Scar Tissue Text Guitar Tab

Learn the song with the online tablature player
Posted by sheeppig

Hey y’all this is the 1000% correct version
Of this song.  Its straight from the tab book and is what
John Frusciante plays.  I’ve made it simple although
It’s still long.  Chords above indicate overall tonality
Of measure. (For those who’ll play with a rhythm
Guitar).  Play to the CD to hear everything correctly.
Especially the solos, the timing isn’t shown properly.

Notes:
() Or [] Notes in brackets don’t need to be played
\  = Legato slide, strike first note and slide to next note
without striking anything else
h = hammer on
p = pull off
v = vibrato
s = slide

RIFF A
   F                         C   Dm                  C
E------------------------------|------------------------|
B----10----10---10---10-----8--|------------------------|
G------------------------------|---9\10--12P10----12P10-|
D------------------------------|------------------------|
A--8-----8----8-----8----8-----|------------------------|
E------------------------------|--(8\10)----------------|

VERSE
PLAY RIFF A
THEN
  F                     C5         D5
E---------------8---|----------------------------------|
B---10---10--10--8--|--8\10--------------10------------|
G-------------------|------------------------12--10--9-|
D-------------------|----------------------------------|
A—8----8----8-------|----------------------------------|
E---------------(8)-|--(8\10)—--10--—10----------------|

CHORUS
RHY. FIG 1
E-1-1-1-1-1-1-1--1-1---|-------------------------|
B-1-1-1-1-1-1-1--1-1-5-|--6-6-6-6---6-6-6-6--5---|
G-2-2-2-2-2-2-2--2-2-5-|--7-7-7-7---7-7-7-7--5---|
D-3-3-3-3-3-3-3--3-3-5-|--7-7-7-7---7-7-7-7--5---|
A-3-3-3-3-3-3-3--3-3-3-|5-5-5-5-5---5-5-5-5--3---|
E-1-1-1-1-1-1-1--1-1---|-------------------------|
HERE YOU CAN JUST PLAY FIFTH CHORDS (F5 C5 D5)

RHY.FIG. 2
E-1-1-1-1-1-1-1--1-1---|------------------------|
B-1-1-1-1-1-1-1--1-1-5-|--6-6-6-6--6-6-6-6------|
G-2-2-2-2-2-2-2--2-2-5-|--7-7-7-7--7-7-7-7------|
D-3-3-3-3-3-3-3--3-3-5-|--7-7-7-7--7-7-7-7------|
A-3-3-3-3-3-3-3--3-3-3-|5-5-5-5-5--5-5-5-5-7----|
E-1-1-1-1-1-1-1--1-1---|-------------------8----|

VERSE
RIFF A

THEN
  F                  C5   D5                    C5
E-----------------10--8-|------------13--12--10--------|
A----10--10--10-------8-|-8\10---10-------------13-----|
G-----------------------|------------------------0-----|
D-----------------------|------------------------------|
A--8----8---8---8-------|------------------------------|
E-----------------------|-(8\10)--(10)-(10)-----(10)(8)|

CHORUS
RHY. FIG. 1 x2
INTERLUDE comes in straight after the last C5
    Dm                         C           Dm        Em
E-------|------------|----------|--------|-------------|
B-13\10-|-10-(10)----|-10\8--8--|--8\10--|-10-10\12\13-|
G-------|------------|----------|--------|-------------|
D-------|------------|----------|--------|-------------|
A-------|------------|----------|--------|-------------|
E-------|------------|----------|--------|-------------|

VERSE
  F                  C     Dm                          C
E----------------------|--------------------------------|
B---10--10--10---10----|--------------------------------|
G-------------------9--|-9\10--10---10--10--12P10-12P10-|
D----------------------|--------------------------------|
A—8----8---8----8------|--------------------------------|
E-------------------8--|(8\10)----10---10--------------8|

  F                 C5  D5
E--------------8------|-------------------------------|
B---10--10--10---8--8-|-8\10---10--12--13--12--10-----|
G---------------------|-------------------------------|
D---------------------|-------------------------------|
A—8----8---8---8------|-------------------------------|
E---------------------|-(8\10)-----------------10—10--|

CHORUS
RHY. FIG. 1
RHY. FIG. 2

VERSE

RIFF A

THEN
E-----------------8-----|--------------12--10-----------|
B---10---10--10------8--|-8\10---10-----------13---10---|
G-----------------------|-------------------------------|
D-----------------------|-------------------------------|
A—8----8----8---8-------|-------------------------------|
E-------------------(8)-|-(8\10)-(10)-------------------|

CHORUS

RHY. FIG. 1 x3
THE THIRD TIME ISN'T RHY.FIG.1 BUT THE VARIATION IS
VERY MINOR SO ITS ALL THE SAME AND IM LAZY.
BUT ALL IT DOES IS LEAVE OUT THE ‘C’, SO THE LAST CHORD OF THE 3RD RHY. FIG IS A ‘D’

GUITAR SOLO
        D5                                       C5
E------------------------|---------------|--------------|
B--(13)\15----15\13--13\-|10--------10\8-|--8---13\--10-|
G------------------------|---------------|--------------|
D------------------------|---------------|--------------|
A------------------------|---------------|--------------|
E------------------------|---------------|--------------|

   D5
E----------|-----------------------|-------------------|
B(10)------|-(13)\15-------17---13\|10-10--(10)\13\8---|
G----------|-----------------------|-------------------|
D----------|-----------------------|-------------------|
A----------|-----------------------|-------------------|
E----------|-----------------------|-------------------|

    C5                         D5                    E5
E-------------------------|-----------------------------|
B---8----------13\----10--|------------15\17----17\18---|
G-------------------------|-----------------------------|
D-------------------------|-----------------------------|
A-------------------------|-----------------------------|
E-------------------------|-----------------------------|

VERSE
  F                 C    Dm                          C5
E---------------------|-------------------------------|
B------10---10--10----|---------10------------------8-|
G------------------9--|-9\10--------------------------|
D---10----------------|-------------------------------|
A—8—------8----8------|-------------------------------|
E------------------8--|-(8\10)-----10-10---10-10-10-8-|

  F                       C5  D5
E---------------------8------|--------------------------|
B—8\10--10—10-10---10---8-8--|-8\10-----10---10—8-6-5---|
G----------------------------|--------------------------|
D----------------------------|--------------------------|
A-------(8)----(8)-----------|--------------------------|
E-------------------------8--|-(8\10)---10--------------|

CHORUS
RHY. FIG 1 x2
RHY. FIG 3 x1  (REMEMBER HOW 2 PLAY IT?)

FINAL SOLO

E-----17---17---|-------------17--------|---------------|
B—(20)---20—-20v|vvvvvvvv-(20)--17—17vvv|vvvvvv—17\18s15|
G---------------|-----------------------|---------------|
D---------------|-----------------------|---------------|
A---------------|-----------------------|---------------|
E---------------|-----------------------|---------------|

E--------------------------|----------------------------|
B-15—-15\13--13/15—-15\13--|--13\15—15----15\13—13|\10--|
G--------------------------|----------------------------|
D--------------------------|----------------------------|
A--------------------------|----------------------------|
E--------------------------|----------------------------|

E------|------------|-------|
B—13\\\|8-----13\\\\|10-----|
G------|------------|-------|
D------|------------|-------|
A------|------------|-------|
E------|------------|-------|

E-----------------|------------|------------------------|
B-----------------|------------|------------------------|
G--------------14-|-----14—14--|----14------------------|
D----12/14\12-----|------------|--------14\12---14\\10—-|
A-----------------|------------|------------------------|
E-----------------|------------|------------------------|

E-----------------|-------------|-----------------------|
B-----------------|---------18\\|17—17—-12/13\12/15--10-|
G-----------------|--14---------|-----------------------|
D—10---10/12------|-------------|-----------------------|
A------------12---|-------------|-----------------------|
E-----------------|-------------|-----------------------|

E----------------|-------------|
B—13\10\8-----8//|10vvvvvvvv---|
G----------------|-------------|
D----------------|-------------|
A----------------|-------------|
E----------------|-------------|

(Sorry too damn lazy too add rhythm chords)

So there it is!  RHCP all 100%.