Red Hot Chili Peppers - Under The Bridge Text Guitar Tab

Learn the song with the online tablature player
Subject: Under The Bridge Tab

Under the Bridge
Red Hot Chili Peppers (Blood Sugar Sex Magik)

Bye

Lukas (Luesche) Kamber

This program is freeware, but it took me some work to make it, so
your financial contribution is welcome.

         H P
e:-------------------------------------------------------------------|
B:-----3-5-3-------------2-------------------------------------------|
G:------------2----------------------3-------------------------2-----|
D:---------------4/6--6--------4--------4--4-2-----------4--------4--|
A:--5------------5/7--7-----4-----4------------5-2--4/5-----5--------|
E:-----------------------2-------------------------------------------|

                                                              H P
e:-------------------------------------------------------------------|
B:3---------------------------------------------------------3-5-3----|
G:---2---------------------3--------------------------2------------2-|
D:-------------------4--------4--4-2------------4--------4-----------|
A:------4-2-------4-----4-------------5-2--4/5-----5-----------------|
E:-----------5-4-----------------------------------------------------|

e:-----------------------------------------|
B:-----------------------------------------|
G:---------------------3--------3----------|
D:-4/6--6--------4--------4--------4-------|
A:-5/7--7-----4-----4--------4--------4----|
E:---------2-------------------------------|

   Part I

   E   B   C#m          G#m A       E   B  C#m A
e:---------------9--9------------------------------|
B:---------------9--9------------------------------|
G:-13--8---------9--9---4---6-------13--8--9---6---|
D:-14--9--10/11---------6---7-------14--9--11--7---|
A:-14--9--10/11---------6---7-------14--9--11--7---|
E:-12--7---8/9----------4---5-------12--7--9---5---|

                     Emaj7
e:-repeat-Part-I,----7--------|
B:-put-play-just-----9--------|
G:-C#m,-without------8--------|
D:-slide-and-upper---9--------|
A:-strings-----------7--------|
E:-------------------7--------|

  Part II           H P                              H P
e:----12-12-----7----------------------------------5-7-5-------------|
B:----12-12-----7----------------------------------------5-----------|
G:13--13-13--8--8-8-9-8---8-------9-----9------------------------13--|
D:14---------9----------9---10/11-11-11-11---6--7----------------14--|
A:14---------9-------------------------------6--7----------------14--|
E:12---------7-------------------------------4--5----------------12--|

                H P
e:12-12-----7-------------------------------5--------------12-12----7|
B:12-12-----7---------------------------------5------------12-12----7|
G:13-13--8--8-8-9-8---8-------9-----9---6-------6------13--13-13--8-8|
D:-------9----------9---10/11-11-11-11--7--------------14---------9--|
A:-------9------------------------------7--------------14---------9--|
E:-------7------------------------------5--------------12---------7--|

     H P                             H P
e:---------------------------------5-7-5------------12-12----7-------|
B:---------------------------------------5----------12-12----7-------|
G:-8-9-8---8-------9-----9----------------------13--13-13--8-8-----8-|
D:-------9---10/11-11-11-11--6--7---------------14---------9----9----|
A:---------------------------6--7---------------14---------9---------|
E:---------------------------4--5---------------12---------7---------|

e:-----9-9---5--5------7--|
B:-----9-9---5-----5---9--|
G:-9---9-9---6---------8--|
D:-11--------7---------9--|
A:-11--------7---------7--|
E:-9---------5---------7--|

  Part III
e:---9----------9---------------------------7-7-7-7-7----9----9--9---|
B:---10---------10--------------------------7-7-7-7-7----10---10-10--|
G:---11---------11------13------------------8-8-8-8-8----11---11-11--|
D:---11---------11------14-------14---------9-9-9-9-9----11---11-11--|
A:----------------------14-------14----------------------------------|
E:----------------------12-------12----------------------------------|

e:--X--X--X--X-------repeat-this-3-times,-------|
B:--X--X--X--X-------but-without-the-shuffeled--|
G:--X--X--X--X-------(X-stuff)-part-for-the-----|
D:--X--X--X--X-------last-time------------------|
A:----------------------------------------------|
E:----------------------------------------------|

            H P                                  H P
e:--0--7---------------------------------------5-7-5------------12--1|
B:--0--7--7-9-7-----7----------------------------------5--------12--1|
G:--1--8---------8-----------9-------9---4--6---------------13--13--1|
D:--2--9---------------9/11--11--11--11--6--7---------------14-------|
A:--2--9---------------------------------6--7---------------14-------|
E:--0--7---------------------------------4--5---------------12-------|

             H P
e:2-----7------------------------------------5-----------------------|
B:2-----7---------------------------------------5--------------------|
G:3--8--8--8-9-8-----8--------9-------9---6--------6-----------------|
D:---9------------9-----9/11--11--11--11--7---------------14---------|
A:---9------------------------------------7-------------------14-----|
E:---7------------------------------------5-----------12----------7--|

       H P
e:----------------------------------------5-------------12--12-------|
B:-------------------------------------------5----------12--12-------|
G:8--8-9-8-----8--------9-------9---------------6---13--13--13-----8-|
D:----------9-----9/11--11--11--11--6--7------------14---------------|
A:----------------------------------6--7------------14----------9----|
E:----------------------------------4--5------------12----------7----|

        H                                                      H P
e:----7-9-7---------------------5-------------12--12-----------------|
B:----7---7-----------------------5-----------12--12------7----------|
G:------------9---9---9-----6-------6-----13--13--13------8--8-9-8---|
D:-9----------11--11--11----7---------7---14-----------9--9--------9-|
A:------------11--11--11----7-------------14-----------9-------------|
E:------------9---9---9-----5-------------12-----------7-------------|

                                H P
e:----------------------------5-7-5----------------------------------|
B:-----------------------------------5-----------------7-------------|
G:8--------9-------9-----------------------------------8-------8-----|
D:---9/11--11--11--11--6--7---------------------14--9--9----9-----11-|
A:---------------------6--7--------------13/14--14--9-------------11-|
E:---------------------4--5--------------11/13------7-------------9--|

                                         PART IV
e:-------------5----7-|---------------|--0--5----------0--0--|
B:---------------5--9-|-play-Part-III-|--5--5--3-3--3--0--1--|
G:------------------8-|---------------|--6--5--4-4--4--2--2--|
D:-11--11---7-------9-|---------------|--7--5--5-5--5--3--3--|
A:-11--11---7-------7-|---------------|----------------------|
E:-9---9----5---------|---------------|----------------------|

e:--play-chords--F-F-F-F-E-E-E-E-G-G-G-G------|
B:--------------------------------------------|
G:--I-don't-know-how-many-times,-but-it's-----|
D:--easy-to-hear,-and-anyway,-it's-the-bass---|
A:--line--------------------------------------|
E:--------------------------------------------|

    Part V                      P
e:--0--------------0-0--0--0------------------0--------------0--0--0-|
B:--5--5--8--5--5--3-3--3--1-------1----------5--5--8--5--5--3--3--3-|
G:--6--5--5--5--5--4-4--4--2--0-2-----2-0-----6--5--5--5--5--4--4--4-|
D:--7--5--5--5--5--5-5--5--3------------------7--5--5--5--5--5--5--5-|
A:-------------------------------------------------------------------|
E:-------------------------------------------------------------------|

        P
e:-0--------------|--------------------------|
B:-1------1-------|--play-Part-V-another-----|
G:-2--0-2---2-0-2-|--3-times-----------------|
D:-3--------------|--------------------------|
A:----------------|--------------------------|
E:----------------|--------------------------|

     Outro
e:-0--0-0---------------------0--0--0-0------------------------0--0--|
B:-5--5-5---5--5--X--X--5--3--0--5--5-5--5--5--8--5-5--3--3----0--1--|
G:-6--6-6---5--5--X--X--5--4--2--6--6-6--5--5--5--5-5--4----4--2--2--|
D:-7--7-7---5--5--X--X--5--5--3--7--7-7--5--5--5--5-5--5-------3--3--|
A:-------------------------------------------------------------------|
E:-------------------------------------------------------------------|

    H P                                                             H
e:--------0--0-0-------------------------0--0-------0--0-0-----------|
B:1-3-1---5--5-5--5--5--8--5-5--3--3-----0--1--1----5--5-5--5--5-----|
G:--------6--6-6--5--5--5--5-5--4----4---2--2--2-2--6--6-6--5--5--5-7|
D:--------7--7-7--5--5--5--5-5--5--------3--3----3--7--7-7--5--5-----|
A:-------------------------------------------------------------------|
E:-------------------------------------------------------------------|

   P
e:---------------0--0---|
B:-------3--3----0--1--2|
G:-5-----4----4--2--2--2|
D:---5---5-------3--3--2|
A:----------------------|
E:----------------------|

                  Under The Bridge
                Red Hot Chili Peppers

Transcripted by Flop.

I didn't bother myself with timing, so hear the song !!!

   F#                    D                         F#
e|---------------------!-------------------------!---------------------|
b|-0-------------------!-------------1-----------!---------------------|
g|---------1-----------!---------0-----0---------!---------1-----------|
d|-----2-----2-2-0-----!-----2-----2-------------!-----2-----2-2-0-----|
a|---2---2---------3-0-!-2/3---3---------2-0-----!---2---2---------3-0-|
E|-0-------------------!---------------------3-2-!-0-------------------|

  D                            F#
e|--------------___----------!-----------------------|
b|-------------1-3-1---------!-----------------------|
g|---------0---------0-------!---------1-----1-------|
d|-----2-----2---------2/4-4-!-----2-----2-----2-----|
a|-2/3---3-------------3/5-5-!---2---2-----2-----2/5-|
E|---------------------------!-0---------------------|

Part A :(chords only)

(barre chords)
(It' s a really simplified version)
NB : Emaj7 :779897

E          B               C#m           B(7) A
Some-times I feel__ like I don't have a part-ner.

E          B                C#m(9)  A
Some-times I feel__ like my only friend__

[N.C.]     E        B           C#m       B   A
is the cit-y I live__ in, the Cit-y of An-gels.

   E       B           C#m          A    Emaj7
Lone-ly as I___ am, to-geth-er we cry__.

Part B :

  E                 B            C#m         B    A
I drive on the streets__, 'cause she's my com-pan-ion.

     E                B               C#m         A
I walk through the hills__ 'cause she knows who I am___.

     E             B             C#m        B   A
She sees my good deeds__ and she kiss-es me win-dy.

E       B             C#m        A      Emaj7
I nev-er wor-ried now that is a lie__.

Part C :(repeat three times)

F#m                 E            B          F#m
I don't ev-er want to feel____________ like I did that day.

F#m                  E               B       F#m
Take me to the place I love____________ take me all the way.

third time :
       E    B         C#m      B    A      E     B     C#m      A
way_____    yea         Yea    yea
Repeat Part B with the following words :

It's hard to believe that there's nobody out there.
It's hard to believe that I'm all alone.
At least I have her love, the city she loves me.
Lonely as I am, together we cry.

Then part C, with that end (let's call it part D):

         A     C             G6     Fmaj7
   way____     yea!___       yea.   yea____.
e|-------0-0___--------------0--0-0-0--------0---|
b|-------5-5 8 5-------------3--3-3-1------1-1-1-|
g|-------6-----5-------------4--4-4-2------2-2---|
d|-------7-----5-------------5--5-5-3------3-3---|
a|-----------------------------------------------|
E|-----------------------------------------------|

   A   C/G            G6   Fmaj7      A     C/G           G6  Fmaj7
Oh,    no__ no no__   yea  yea!__    Love__ me__ I say__  yea yea!__
(with  part D's rythm figure)

Then part E :
Chords:

     (spoken) : One time.

Part F(or so...) :
  Guitar 1 plays part D while accoustic guitar plays :

                 A                   C            G6       Fmaj7
(lead vocal)                                      is where I drew some blood
(back vocals)   (un-der the bridge__ down-town__  is where I drew some blood

(with same chords):

lvoc:                            I could not get enough
bvoc: under the bridge downtown  I could not get enough

l:                               forgot about my love
b:Under the bridge downtown      forgot about my love

l:                               I gave my life away
b:Under the bridge downtown      I gave my life away_____

l:               Yea!________    Yea     Yea____
b:______________________________                   a-

l:No        no___ no no    no    yea    yea____
b:way___________________________                   a-

l:Down   town          I said oh  yea yea_______
b:way________________________________              a-

l:          (spoken):will I stay
b:way___________________________

And now the outro (or part G):

   A        C             G6                     A       C
                              let ring---------         let ring--------
e:-0-0-0--0-------------:-0-0---0------_---0---|-0--0-0------------_----|
b:-5-5-5--5-5--5-5--5-5-:-3-3---0-----0 1----1-|-5--5-5--5--5-5-5-8 5-5-|
g:-6-6-6--6-5--5-5--5-5-:-4-4---2--------------|-6--6-6--5--5-5-5-5-----|
d:-7-7-7--7-5--5-5--5-5-:-5-5---3--------------|-7--7-7--5--5-5-5-------|
a:----------------------:----------------------|------------------------|
E:----------------------:----------------------|------------------------|

   G6          Fmaj7       A      C              G6         Fmaj7
           let ring------          let ring----
e:-0--0-0--0---0--___----:-0--0-0---------_----:-0--0-0--0---0--0-0--|
b:-3--3-3--0---1-0 1 0---:-5--5-5-5--5-5-8 5---:-3--3-3--0---1--1-1/-|
g:-4--4-4--2---2-------2-:-6--6-6-5--5-5-----5-:-4--4-4--2---2--2-2/-|
d:-5--5-5--3---3---------:-7--7-7-5--7-7-------:-5--5-5--3---3--3-3/-|
a:-----------------------:---------------------:---------------------|
E:-----------------------:---------------------:---------------------|

   A        C                 G6          Fmaj7  A
            let ring-------        let ring-
e|-0--0-0-------------------|-0-------0---0-|----0------|
b|-5--5-5---5--5-5--5-------|-3--3----0---1-|----2------|
g|-6--6-6---5--5-5--5 7 5---|-4----0--2---2-|----2------|
d|-7--7-7---5--5-5---___--7-|-5-------3---3-|----2------|
a|--------------------------|---------------|----0------|
E|--------------------------|---------------|-----------|

                          UNDER THE BRIDGE
                         =20
by Red Hot Chili Peppers

e---------------------------|---------------------------|
B-3----------3--------------|---------------------------|
G-------2-------2-----------|------------3--------------|
D----4-----4----------------|-------4-------4---4-2-----|
A-5-----------------4-2-----|----4-----4------------5-2-|
E-----------------------5-4-|-2-------------------------|

e-----------------------------|---------------------------|
B-------------3h5p3-----------|---------------------------|
G---------2---------2---------|------------3--------------|
D-----4-----4-----------4/6-6-|-------4-------4---4-2-----|
A-4/5---5---------------5/7-7-|----4-----4------------5-2-|
E-----------------------------|-2-------------------------|

e-----------------------------|---------------------------|
B--------------3--------------|---------------------------|
G---------2-------2-----------|------------3--------------|
D-----4------4----------------|-------4-------4---4-2-----|
A-4/5---5-------------4-2-----|----4-----4------------5-2-|
E-------------------------5-4-|-2-------------------------|

e------------------------------|----------------------------|
B--------------3h5p3-----------|----------------------------|
G---------2----------2---------|------------3-------3-------|
D-----4------4-----------4/6-6-|-------4-------4------4-----|
A-4/5---5----------------5/7-7-|----4-----4------4------4/7-|
E------------------------------|-2--------------------------|

e---------------------|-------------------------|----------------------|
B-9----x--7--------x--|-------9----4-----5------|-9----x--7------------|
G-9----x--8--------x--|-------9----4-----6------|-9----x--8------------|
D-9----x--9--------x--|-9/11--9----6-----7------|-9----x--9------------|
A-7----x--9--------x--|-9/11-------6-----7------|-7----x--9------------|
E---------------------|-------------------------|----------------------|
  Sometimes I feel like I don't have a partner Sometimes I feel like my

e--------------------|--------------------|---------------------|-----------=
---|
B-9------5-----------|-9------7-----------|-9------4----5-------|-9----x--7-=
---|
G-9------6-----------|-9------8-----------|-9------4----6-------|-9----x--8-=
---|
D-11-----7-----------|-9------9-----------|-11-----6----7-------|-9----x--9-=
---|
A-11-----7-----------|-7------9-----------|-11-----6----7-------|-7----x--9-=
---|
E--------------------|--------------------|---------------------|-----------=
---|
  only friend is the   city I live in the city of angels    Lonely as I am=
 toge-

e-------------------|------------------|
B-9------5----------|-9----------------|
G-9------6----------|-8----------------|
D-11-----7----------|-9----------------|
A-11-----7----------|-7----------------|
E-------------------|------------------|
ther we cry                               I

e---------------------------|----------------------5h7p5--|
B-9---9---7---7----7--------|------9----9--4----5-------5-|
G-9---9---8---8----8h9p8--8-|------9----9--4----6-------6-|
D-9---9---9-------------9---|-9/11-9-11-9--6----7---------|
A-7---7---9------9----------|-9/11---11----6----7---------|
E---------------------------|-----------------------------|
  drive on her streets 'cause she's my companion        I

e---------------------------|-------------------5---------|
B-9---9---7---7----7--------|------9----9--5-------5------|
G-9---9---8---8----8h9p8--8-|------9----9--6----------6---|
D-9---9---9-------------9---|-9/11-9-11-9--7--------------|
A-7---7---9------9----------|-9/11---11----7--------------|
E---------------------------|-----------------------------|
  through her hills 'cause she knows who I am       She

e----------------------------|----------------------5h7p5--|
B-9---9-------7-7---7--------|------9----9--4----5-------5-|
G-9---9-------8-8---8h9p8--8-|------9----9--4----6-------6-|
D-9---9---9--------------9---|-9/11-9-11-9--6----7---------|
A-7---7---9-------9----------|-9/11---11----6----7---------|
E----------------------------|-----------------------------|
seems my good deeds and she    kisses me windy

e-----------------------|----------------5----|------------------|
B-9---9-------7----7----|-------9---5-------5-|-9----------------|
G-9---9------------8--8-|-------9---6---------|-8----------------|
D-9---9---9-----------9-|-9/11--9---7---------|-9----------------|
A-7---7---9------9------|-9/11------7---------|-7----------------|
E-----------------------|---------------------|------------------|
  I never worry  now that is a lie

e-----------------------|-11-11-11-11---9-----9---9---x-x-|
B---10----9--9----9-----|-12-12-12-12---10----10--10--x-x-|
G---11----9--9----9-----|-11-11-11-11---11----11--11--x-x-|
D---11----9--9----9-----|---------------11----11--11--x-x-|
A---9-----7--7----7-----|---------------9-----9---9---x-x-|
E-----------------------|---------------------------------|
    I don't ever want to feel    like I did that day

e------------------------|-11-11-11-11---9-----9---9---x-x-|
B-x-x-10----9--9----9----|-12-12-12-12---10----10--10--x-x-|
G-x-x-11----9--9----9----|-11-11-11-11---11----11--11--x-x-|
D-x-x-11----9--9----9----|---------------11----11--11--x-x-|
A-x-x-9-----7--7----7----|---------------9-----9---9---x-x-|
E------------------------|---------------------------------|
Take me to the place I love       take  me  all  the  way

e------------------------|-11-11-11-11---9-----9---9---x-x-|
B-x-x-10----9--9----9----|-12-12-12-12---10----10--10--x-x-|
G-x-x-11----9--9----9----|-11-11-11-11---11----11--11--x-x-|
D-x-x-11----9--9----9----|---------------11----11--11--x-x-|
A-x-x-9-----7--7----7----|---------------9-----9---9---x-x-|
E------------------------|---------------------------------|
I don't ever want to feel         like I did that day

e------------------------|-11-11-11-11---9-----9---9---x-x-|
B-x-x-10----9--9----9----|-12-12-12-12---10----10--10--x-x-|
G-x-x-11----9--9----9----|-11-11-11-11---11----11--11--x-x-|
D-x-x-11----9--9----9----|---------------11----11--11--x-x-|
A-x-x-9-----7--7----7----|---------------9-----9---9---x-x-|
E------------------------|---------------------------------|
Take me to the place I love       take  me  all  the  way

e-----------------------------|-----------------------5h7p5--|
B-9---9-x-x-7---7----7h9p7----|------9----9--4----5--------5-|
G-9---9-x-x-8---8----8------8-|------9----9--4----6--------6-|
D-9---9-x-x-9-------------9---|-9/11-9-11-9--6----7----------|
A-7---7-x-x-9------9----------|-9/11---11----6----7----------|
E-----------------------------|------------------------------|
             YEAH                YEAH  YEAH

e-----------------------------|-------------------5---------|
B-9---9-x-x-7---7----7--------|------9----9--5-------5------|
G-9---9-x-x-8---8----8h9p8--8-|------9----9--6----------6---|
D-9---9-x-x-9-------------9---|-9/11-9-11-9--7--------------|
A-7---7-x-x-9------9----------|-9/11---11----7--------------|
E-----------------------------|-----------------------------|

e------------------------------|----------------------5-------|
B-----9------------------------|------9----9--4---------5-----|
G-----9----------8-----9-8-8-8-|------9----9--4-----------6---|
D-----9------------9-----------|-9/11-9-11-9--6----7----------|
A-11-----11-\9-------9---------|-9/11---11----6----7----------|
E------------------------------|------------------------------|
It's hard to believe that        there's nobody out there  it's

e-------------------7h9--7---|-----------5----5----------|
B-9---9---7---7----------7---|-------9---5-------5-------|
G-9---9---8-----8-8----------|-------9---6---------6-----|
D-9---9---9------------------|-9/11--9---7-----------7---|
A-7---7---9------------------|-9/11------7---------------|
E----------------------------|---------------------------|
  hard to believe that I'm all alone

e---------7---7-------------|----------------------5h7p5---|
B-9---9---7---7----7--------|------9----9--4-------------5-|
G-9---9---8---8----8h8p8--8-|------9----9--4---------------|
D-9---9---9---9--9------9---|-9/11-9-11-9--6----7----------|
A-7---7---9---9-------------|-9/11---11----6----7----------|
E---------------------------|------------------------------|
At least I have her love  the city she loves me

e---------------------------|---------------5--------|-6----------------|
B-----9---------------------|----------5-------5-----|-9----------------|
G-----9----------8----------|------9---6-------------|-8----------------|
D-----9----------9----------|------9---7-------------|-9----------------|
A-11-----11-\9----------9---|-11-------7-------------|-7----------------|
E------------7--------------|-9----------------------|------------------|
  Lonely as I am              Together we cry

=20

e-----------------------|-11-11-11-11---9-----9---9---x-x-|
B---10----9--9----9-----|-12-12-12-12---10----10--10--x-x-|
G---11----9--9----9-----|-11-11-11-11---11----11--11--x-x-|
D---11----9--9----9-----|---------------11----11--11--x-x-|
A---9-----7--7----7-----|---------------9-----9---9---x-x-|
E-----------------------|---------------------------------|
    I don't ever want to feel    like I did that day     =20

e------------------------|-11-11-11-11---9-----9---9---x-x-|
B-x-x-10----9--9----9----|-12-12-12-12---10----10--10--x-x-|
G-x-x-11----9--9----9----|-11-11-11-11---11----11--11--x-x-|
D-x-x-11----9--9----9----|---------------11----11--11--x-x-|
A-x-x-9-----7--7----7----|---------------9-----9---9---x-x-|
E------------------------|---------------------------------|
Take me to the place I love       take  me  all  the  way =20

e------------------------|-11-11-11-11---9-----9---9---x-x-|
B-x-x-10----9--9----9----|-12-12-12-12---10----10--10--x-x-|
G-x-x-11----9--9----9----|-11-11-11-11---11----11--11--x-x-|
D-x-x-11----9--9----9----|---------------11----11--11--x-x-|
A-x-x-9-----7--7----7----|---------------9-----9---9---x-x-|
E------------------------|---------------------------------|
    I don't ever want to feel    like I did that day     =20

e------------------------|-11-11-11-11---9---------0-0-|
B-x-x-10----9--9----9----|-12-12-12-12---10--------5-5-|
G-x-x-11----9--9----9----|-11-11-11-11---11--------6-6-|
D-x-x-11----9--9----9----|---------------11--------7-7-|
A-x-x-9-----7--7----7----|---------------9-------------|
E------------------------|-----------------------------|
Take me to the place I love       take  me  all  the  way  =20

                 =20
e-0------0-------------|-0---0---0---0---0--0---|-0------0-------------|
B-5------5-------------|-3---3---1---1---1--1---|-5------5-------------|
G-6------5-------------|-4---4---2---2---2--2---|-6------5-------------|
D-7------7-------------|-5---5---3---3---3--3---|-7------7-------------|
A----------------------|------------------------|----------------------|
E----------------------|------------------------|----------------------|
                         YEAH   YEAH              Oh   no

e-0---0---0----0-------|-0------0----------|-0---0---0---0-0-0-0--x---|
B-3---3---1----1-------|-5------5----------|-3---3---1---1-1-1-1--x---|
G-4---4---2------------|-6------5----------|-4---4---2---2-2-2-2--x---|
D-5---5---3------------|-7------7----------|-5---5---3---3-3-3-3--x---|
A----------------------|-------------------|--------------------------|
E----------------------|-------------------|--------------------------|
 YEAH       YEAH         Love me I say    YEAH                YEAH

e-12-12-12-12-12-12-12-12-12-12-12-12-12-12-12-12-|
B-10-10-10-10-10-10-10-10-10-10-10-10-10-10-10-10-|
G-10-10-10-10-10-10-10-10-10-10-10-10-10-10-10-10-|
D-10-10-10-10-10-10-10-10-10-10-10-10-10-10-10-10-|
A-------------------------------------------------|
E-------------------------------------------------|
                             One time

e-10-10-10-10-10-10-10-10-7-7-7-7-7-7-7-7-7-|
B-9--9--9--9--9--9--9--9--8-8-8-8-8-8-8-8-8-|
G-9--9--9--9--9--9--9--9--7-7-7-7-7-7-7-7-7-|
D-9--9--9--9--9--9--9--9--------------------|
A-------------------------------------------|
E-------------------------------------------|
                 =20

e-0---0---0----0-------|-0---0---0-----------------|-0------0----------|
B-5---5---5----5-------|-3---3---1-----------------|-5------5----------|
G-6---6---5----5-------|-4---4---2-------5b--------|-6------5----------|
D-7---7---7----7-------|-5---5---3---5/7-----7-5---|-7------7----------|
A----------------------|---------------------------|-------------------|
E----------------------|---------------------------|-------------------|
Under the bridge downtown is where I drew some blood Under the bridge=
 downtown
                         YEAH              YEAH      Oh   no  no no no

e-0---0---0------------------|-0------0----------|-0---0---0----------------=
|
B-3---3---1------------------|-5------5----------|-3---3---1----------------=
|
G-4---4---2-------5b---------|-6------5----------|-4---4---2-------5b-------=
|
D-5---5---3---5/7----7-5-7---|-7------7----------|-5---5---3---5/7----7-5---=
|
A----------------------------|-------------------|--------------------------=
|
E----------------------------|-------------------|--------------------------=
|
  I could not get enough       Under the bridge downtown Forgot about my=
 love
  YEAH      YEAH                                          YEAH     YEAH

e-0------0----------|-0---0---0------------------|
B-5------5----------|-3---3---1------------------|
G-6------5----------|-4---4---2-------5b---------|        Repeat the last=20
D-7------7----------|-5---5---3---5/7----7-5-7---|           eight bars
A-------------------|----------------------------|
E-------------------|----------------------------|
 Under the bridge downtown I gave my life away
 Here I stay

e-0---0-0--0----0--0--x-x-|-0---0-x-x-0--------0------|
B-5---5-1--1----1--1--x-x-|-3---3-x-x-1---0h1-----1---|
G-6---6-2--2----2--2--x-x-|-4---4-x-x-2---------------|
D-7---7-------------------|-5---5-x-x-3---------------|
A-------------------------|---------------------------|
E-------------------------|---------------------------|

e-0---0-x--0---0-0-0-3p0--0---|-0---0-0-0-0---0-0-0-0------|
B-5---5-x--1---1-1-1-1----1---|-3---3-3-3-0---1-1-1-1h3p1--|
G-6---6-x--2------------------|-4---4-4-4-2---2-2-2------2-|
D-7---7-x---------------------|-5---5-5-5-3----------------|
A-----------------------------|----------------------------|
E-----------------------------|----------------------------|

e-0---0---0---0--0--3p0-----|-0---0-0--0---0-0-0-0-----|
B-5---5---1---1--1--1---1---|-3---3-3--0---1-1-1-1-----|
G-6---6---2-----------------|-4---4-4--2---2-2-2-2-----|
D-7---7---------------------|-5---5-5--3---------3-----|
A---------------------------|--------------------------|
E---------------------------|--------------------------|

e-0---0---0---0------------|-0---0---0------------|-------------------||
B-5---5---1---1---1h3p1----|-3---3---0----1-------|-2-----------------||
G-6---6---2---2--------2---|-4---4---2------------|-2-----------------||
D-7---7--------------------|-5---5---3------------|-2-----------------||
A--------------------------|----------------------|-0-----------------||
E--------------------------|----------------------|-------------------||
           rall...                   rall...

Ricardo S=E9rgio Caetano Ferreira