Rolling Stones - Angie Text Guitar Tab

Learn the song with the online tablature player
Artist: The Rolling Stones
SOng: Angie
Album: Goats' Head Soup and any of their greatest hits from the post-Brian Jones days.

Chord Definitions:
G: 320003
G/B: 022000
Am: x02210
C: x32010
Csus4: x33010
F: xx3211
Am7: x02213 or x02010
E7: 020100
Fsus4: xx3311
Gsus4: xx5533
Gsus4/B: x30003 or 330003
Dm: xx0231
Dsus2: xx0230
A5: xx22xx
E5: xxxx00
Am9: x02203
Dm9: xx0555
Dm7: xx0565

            Am                            E7                         P.M.>>>|
e|-----|-----0--0--0------3-0------------|---------0-------------0----------|
B|-----|-----1-----1------1-------1------|-------3---3--------3-------------|
G|-----|-----2-----2-----------2---------|-----4-------4------4-------4--0--|
D|-----|-----2---------2-------------2-2-|----------------------------------|
A|-12--|---------------------------------|----------------------------------|
E|-----|---------------------------------|-0--------------4-----------------|
   +

  Gsus4                Fsus4 F                     Csus4    C      Gsus4/B
e|------------3-------------------1-----|-------1---------------0-----------|
B|---------3-----3-------------------1--|----------------1------1-------1---|
G|------5-----------5-----3--2----------|----2--------------0--------------0|
D|-5-------------------5--3--3----------|-3-----------3-----2---------0-----|
A|--------------------------------------|----------3---------------2--------|
E|--------------------------------------|-----------------------------------|

  Am                                      E7
       Ang - gie,                              An  -  gie
e|----0-----------5--5--5--3------------|-----------0---0--------0----------|
B|----1-----------5--5--5--3------------|---------3---3-3--------3----------|
G|----------------------------5---------|-------4-------4------------X------|
D|-2------------------------------------|-----------------------------------|
A|-0---------2--------------------------|-----------------------------------|
E|--------------------------------------|-0---------------------------------|

 Gsus4           G    Fsus4 F     Cadd4          C
     when will those clouds all disappear?________
e|----3----3----------------------------|
B|----3----3----------------------------|
G|----5----5-----------3-----2----------|
D|-5-------------0-----3-----3----------|
A|------------------------------------3-|
E|--------------------------------------|

Now the rhythm guitar starts strumming the chords. The lead should continue finger-
picking the chords because the rest of the song doesn't really have any consistent
riffs or licks and it is boring for your audience if you emulate every nuisance of
Keith Richards and Mick Taylor's finger-pickings.

Verse
Am      E7
Angie, Angie,

Gsus4      G     Fsus4  F        Cadd4   C
when will those clouds all disappear?

Am     E7
Angie, Angie,

Gsus4      G  Fsus4 F      Cadd4   C
where will it lead us from here?

Chorus
         G                                       Am      C
With no loving in our souls and no money in our coats

           F             G
You can't say we're satisfied

    Am   Am7  E7
But Angie,    Angie,

G          F            Fsus4  F  C
you can't say we never tried

Verse
Am7    Am    E7
Angie, you're beautiful,

     G         F            Fsus4  F  Gsus4  C
but ain't it time we said good-bye?

Am   Am7  E7
Angie,    I still love you,

     G    F                  Fsus4  F  Gsus4  C
remember all those nights we cried?

Chorus
C                       G
All the dreams we held so close

           Dm       Dsus2   Am   Am7
seemed to all go up in    smoke

          F              C/G    G
Let me whisper in your ear:

Am     E7      G
Angie, Angie,

                F           F   Fsus4  F  C
where will it lead us from here?

Solo on Piano arranged for guitar:
Am

  Am7                E7
e|-20--19--19---17-------12--------12------19---17--17---16---------------12|
B|-17--------------------12h13-----12---------------------------------12----|
G|-----19--19---17-------------14----------19---17--17---16-------13--------|
D|-------------------14----------------14---------------------14------------|
A|--------------------------------------------------------------------------|
E|--------------------------------------------------------------------------|

         G         F                         Fsus4  F      C
e|------19p17-----18p17-----17---------13---13---12---10---12--------15---15|
B|-15---------20--18----20--18------13-------------------------15h17----15--|
G|-------------------------------14---------14---12---10---12---------------|
D|--------------------------------------------------------------------------|
A|--------------------------------------------------------------------------|
E|--------------------------------------------------------------------------|

       Am                             Am7              E7
e|-----20--19--20--17----12--------------------12------19p\17--19--16----12-|
B|-----17------17------------------------------12---------------------------|
G|-17------19------17----14--------12----14------------19p\17--19--16----13-|
D|-----------------------------14------------------14-----------------------|
A|--------------------------------------------------------------------------|
E|--------------------------------------------------------------------------|

                               G           F
e|-------------12------19--19--19p\17--15--18p17------17------17------------|
B|---------12------15----------------------18-----20--18--20--18---------13--|
G|-----13--------------19--19--19p\17-----------------------------12h14------|
D|-14------------------------------------------------------------------------|
A|---------------------------------------------------------------------------|
E|---------------------------------------------------------------------------|

               C
e|-13--12--10--12------------|
B|---------12--------13--17--|
G|-14--12--10--12------------|
D|-------------------10--14--|
A|---------------------------|
E|---------------------------|

Chorus

C              G
Oh, Angie, don't you weep,

           Dm                Am       C
all your kisses still taste sweet

             F                     G
I hate that sadness in your eyes

      Am  A5  E7
But Angie, Angie,

    G       F              Fsus4  F  C
ain't it time we said good-bye?

Interlude
Am7    E7    G    Fsus4  F    Gsus4  C

Chorus
         G                         Dm              Am      C
With no loving in our souls and no money in our coats

               F              G
You can't say we're satisfied

Bridge

    Dm                  E5    Am  Am7  Am9
But Angie, I still love you, baby

Dm                            E5 Am  Am7   Am9 Am7
Ev'rywhere I look I see your eyes

Dm              Dm9    Dm7       Am          G  C
There ain't a woman that comes close to you

         F                  G
Come on baby, dry your eyes

Verse

    Am Am7 Am E5 E7
But Angie,    Ang-ie,

G        Fsus4 F         Fsus4  F   C
ain't it good  to be alive?

Am     G  E7
Angie, An-gie,

     G     Fsus4 F           F  Fsus4  F  Gsus4  C
they can't say  we never tried

| /  slide up
| \  slide down
| h  hammer-on
| p  pull-off
| ~  vibrato
| +  harmonic
| x  Mute note