Ronnie Hazlehurst - Are You Being Served Text Guitar Tab

Learn the song with the online tablature player
"Are You Being Served?"  by Ronnie Hazlehurst

G -5-3-0---------------------0-------------------------------0----|
D -------3-1---------------0-----------------3-1-----------0------|
A -----------3---13---31--------123---3----3----313----1--------1-|
E -------------3-----3---3-----3-----3-2-1-----------3---3-----3--|

G ---------------------------5---------------5---------------0--0-|
D -----------4--1233--31---5----1233--31---4---------------0---0--|
A 3----1---4---3-----3---3-----3-----3---3------1233--31----------|
E ---3---2-------------------------------------3-----3---3--------|

G -----------2---------------0---0-----------6-50------------0----|
D 2---2-----------0---0----0---13-6---66---6---------------0------|
A ---2-1-0-0---034---0-3-------------6---4--------3---31--------1-|
E -----------------------3---------------------------3---3-----3--|

G --------------------------------|
D -----------3--------------------|
A 3--------3------1--4--3---------|
E ---3-2-1------------------------|