Roxen - Toh Phir Aao Text Guitar Tab

Learn song with the online tabulature player
toh phir aao solo...
tabbed by : J.J

e-s12-10-9h10p9--------------------------------------------|
B---------------12-10-12-10-10-8-7s8-10-12--8-7-10--10-8p7-|
G----------------------------------------------------------|
D----------------------------------------------------------|
A----------------------------------------------------------|
E----------------------------------------------------------|

e------------------------------------------------------------------------------|
B-------------------8s10-12-14-15-15s17-15-15-17s19-17-15-15-14h15-15-14h15s19-|
G-11-11-11p9-7-9s11------------------------------------------------------------|
D------------------------------------------------------------------------------|
A------------------------------------------------------------------------------|
E------------------------------------------------------------------------------|

e----------------------------------------------------|
B-19-17-17-15-15-14-14-14-19-19-17-17-15-15-14-14-14-|
G----------------------------------------------------|
D----------------------------------------------------|
A----------------------------------------------------|
E----------------------------------------------------|

e--------------------------------------|
B-15-14-14-15-14-12--15-14-14-15-17s19-|
G--------------------------------------|
D--------------------------------------|
A--------------------------------------|
E--------------------------------------|

e----------------------------------------------------|
B-19-17-17-15-15-14-14-14-19-19-17-17-15-15-14-14-14-|
G----------------------------------------------------|
D----------------------------------------------------|
A----------------------------------------------------|
E----------------------------------------------------|


e-------------------------------|
B-15-14-14-15-14-12-12-14-15-14-|
G-------------------------------|
D-------------------------------|
A-------------------------------|
E-------------------------------|