Rush - Out Of The Cradle Text Guitar Tab

Learn the song with the online tablature player
This is only a partial tab

Intro
||--------------------------------||
||--------------------5--5--5--4--||
||--------------------------------||
||--4p2---4p2---4p2---------------||
||------2-----2-----2-------------||
||--------------------------------||
almost sounds like bass

Verse
||------------------------||
||----7---7---------------||
||--4---4---4-2-2--1------||
||-------------------4-2--||
||------------------------||
||------------------------||

Pre Chorus/Chorus
||----------------------------------------------------||
||----------------------------------------------------||
||--9--9-9-9--9-9-9--9-9-7--7-7-7--7-7-7--7-7-7--7-7--||
||--9--9-9-9--9-9-9--9-9-7--7-7-7--7-7-7--7-7-7--7-7--||
||--7--7-7-7--7-7-7--7-7-5--5-5-5--5-5-5--5-5-5--5-5--||
||--0--0-0-0--0-0-0--0-0-0--0-0-0--0-0-0--0-0-0--0-0--||
|
||--0-0-0-0-0-0-0-0-0-0-0-0-0-0-0-0-0-0-0-0-0-0-0-0-0-||
||----------------------------------------------------||
||----------------------------------------------------||
||----------------------------------------------------||
||----------------------------------------------------||
||----------------------------------------------------||

Bridge

All bass

Guitar Solo
||--7--5--7-7-5-----------------7--5--7-7-5------------||
||----------------5--3--5-5-3----------------8--8--8---||
||-----------------------------------------------------||
||-----------------------------------------------------||
||-----------------------------------------------------||
||-----------------------------------------------------||

||--7--5--7-7-5-----------------7--5--7-7-5------------||
||----------------5--3--5-5-3----------------8--8--8---||
||-----------------------------------------------------||
||-----------------------------------------------------||
||-----------------------------------------------------||
||-----------------------------------------------------||

||--7--5--7-7-5-----------------7--5--7-7-5------------||
||----------------5--3--5-5-3----------------8--8--8---||
||-----------------------------------------------------||
||-----------------------------------------------------||
||-----------------------------------------------------||
||-----------------------------------------------------||

||--7--5--7-7-5-----------------7--5--7-7-5------------||
||----------------5--3--5-5-3----------------8--8--8---||
||-----------------------------------------------------||
||-----------------------------------------------------||
||-----------------------------------------------------||
||-----------------------------------------------------||

Outro solo
A mystery at the moment