Rush - Peaceable Kingdom Text Guitar Tab

Learn the song with the online tablature player
                             Peaceable Kingdom - Rush

Main Riff (You need to listen to the timing of the song to play it correctly)
e|-------------------------------------------------------------------------|
B|-------------------------------------------------------------------------|
G|------7-------5----------------------------------------------------------|
D|------7-------5----------------------------------------------------------|
A|------5-------3----------------------------------------------------------|
E|-------------------------------------------------------------------------|

Riff 2
Again, the song throws the little different riff in random times throughout the
so you'll need to listen out for it.)
e|---------------------------------------------------------------------------|
B|----------6----------------------------------------------------------------|
G|------7---5---5------------------------------------------------------------|
D|------7---3---5------------------------------------------------------------|
A|------5-------3------------------------------------------------------------|
E|---------------------------------------------------------------------------|

Chorus
Strummed)
e|-------------------------------------------------------------------------|
B|--------------10---------------------------------------------------------|
G|------9-------9----------------------------------------------------------|
D|------9-------7----------------------------------------------------------|
A|------7------------------------------------------------------------------|
E|-------------------------------------------------------------------------|

Break 1
e|-------------------------------------------------------------------------|
B|-------------------------------------------------------------------------|
G|-------------------------------------------------------------------------|
D|----2-2-x-x-2-2-x-x-2-2-x-x-2-2-(x8)-------------------------------------|
A|----2-2-x-x-2-2-x-x-2-2-x-x-2-2------------------------------------------|
E|----0-0-x-x-0-0-x-x-0-0-x-x-0-0------------------------------------------|

Break 2
Bend the G note a little bit when playing it.)
e|-------------------------------------------------------------------------|
B|-------------------------------------------------------------------------|
G|-------------------------------------------------------------------------|
D|-------------------------------------------------------------------------|
A|----------------------------2p0h2p0--------------------------5-5h7-------|
E|----0-0-0-3bu-0-0-3bu-0-3bu----------0-0-0-3bu-0-0-3bu-0-3bu-------------|

Post Chorus
e|-------------------------------------------------------------------------|
B|-------------------------------------------------------------------------|
G|--------------------x--2-2-----------------------------------------------|
D|----5-5-x-4-4-x-4-4-x--2-2-----------------------------------------------|
A|----5-5-x-4-4-x-4-4-x--0-0-----------------------------------------------|
E|----3-3-x-2-2-x-2-2-x----------------------------------------------------|

And thats pretty much it!
I know its quite simplistic, but thats just the foundations to the song really!
Hope you enjoy!

| /  slide up
| \  slide down
| h  hammer-on
| p  pull-off
| ~  vibrato
| +  harmonic
| x  Mute note